» » »

Lie After Lie Tabs (ver.1)

Artists:  A B C D E F G H I J K L M N O P Q R S T U V W X Y Z # 

Lie After Lie Tabs (ver.1)

Filter
Rating:
0/5 (0 votes)
Tabs too difficult? Try these video lessons and learn fast.
                Corrections and suggestions welcome

Tuning: D A D G B D - (low to high)
                            
Song progression:

[CD Intro]:
   
D:--0-0-0-0-0-0-0-0-0-0-0-0---------------|
B:-3-3-3-3-3-3-3-3-3-3-3-3----------------|
G:----------------------------------------|
D:----------------------------------------|
A:----------------------------------------|
D:----------------------------------------|
   
[Verse/chorus Riff]
 
D:---0-----0-----0-----0-----0------------|
B:---3-----3-----3-----3-----3------------|
G:---2-----0-----0-----0-----2------------|
D:-0-0-----0-----0-----0---0-0------------|
A:-0-0---3-3---2-2---1-1---0-0------------|
D:-0-0---0-0---0-0---0-0---0-0------------|
   

[Bridge riff]
D:-0------0---------0-----------0---------|
B:-0------3---------3-----------0---------|
G:-0------0---------0-----------0---------|
D:-5------3---------0-----------5---------|
A:-5------1---------3-----------5---------|
D:-5------0---------0-----------5---------|
  Will we end up as life's many wrongs
  
D:-0------0---------0-----------0---------|
B:-0------3---------3-----------3---------|
G:-0------0---------0-----------2---------|
D:-5------3---------0-----------0---------|
A:-5------1---------3-----------0---------|
D:-5------0---------0-----------0---------|
  Will we end up   at all 

[Solo riff]
D:-----------------------------0----------|
B:-3-3-3-3--3-3--3-3-3--3-3-3--2----------|
G:-2-2-0-2--5-4--2-2-0--5-4-3--3----------|
D:-2-2-0-2--5-4--2-2-0--5-4-3--0----------|
A:----------------------------------------|
D:----------------------------------------|
            
Tabs too difficult? Try these video lessons and learn fast.


comments powered by Disqus
↑ Back to top | Tablatures and chords are parodies/interpretations of the original songs. You may use it for private study, scholarship, research or language learning purposes only