» » »

Jurassitol Tabs (ver.1)

Artists:  A B C D E F G H I J K L M N O P Q R S T U V W X Y Z # 

Jurassitol Tabs (ver.1)

Filter
Rating:
0/5 (0 votes)

Hard to play? Try these video lessons and learn fast.
                Dropped D tuning

PM - Palm Mute
\ - Slide

Intro
E|---------------------------------------|
B|---------------------------------------|
G|---------------------------------------|
D|---------------------------------------|
A|---------------------------------------|
D|-0-0-10-0-12-0-0-10-0-10-0-0-10-0-12-0-|

Riff 1
"When will you learn..."
E|------------------|
B|------------------|
G|------------------|
D|-8-----\3--5---\3-|
A|-8-----\3--5---\3-|
D|-8-----\3--5---\3-|
                -PM
Riff 2
  "Bust your wallet while I break my back..."
E|----------------|
B|----------------|
G|----------------|
D|-3---4--5-6---0-|
A|-3---4--5-6---0-|
D|-3---4--5-6---0-|

"Will she pay my debts?..."
E|---------------|
B|---------------|
G|---------------|
D|-6---2-3---4-5-|  
A|-6---2-3---4-5-|
D|-6---2-3---4-5-|

 Ending
E|----------------|
B|----------------|
G|----------------|
D|-0--6-6--0--3-3-|
A|-0--6-6--0--3-3-|
D|-0--6-6--0--3-3-|
            
Hard to play? Try these video lessons and learn fast. | Correct




comments powered by Disqus
↑ Back to top | Tablatures and chords are parodies/interpretations of the original songs. You may use it for private study, scholarship, research or language learning purposes only