» » »

Filter, Hey Man Nice Shot Bass tabs (ver.1)

Artists:  A B C D E F G H I J K L M N O P Q R S T U V W X Y Z # 

Hey Man Nice Shot Bass tabs (ver.1)

Filter Tabs
 Rating:
4/5 (4 votes)
Hey Man Nice Shot lessons Tabs too difficult? Try these video lessons and learn fast
1
                "(2)
HEY MAN NICE SHOT (Bassline)
As recorded by Filter
(From the 1995 Album SHORT BUS)
Words and Music by Richard Patrick

 

Gtr I (D A D G) - 'Drop - D'


  Slow Rock Q=92
 4/4
  Gtr I
  W            S S S S S S S S S S S S S S S S
|----------||----------------------------------|
|----------||o---------------------------------|
|----------||o---------------------------------|
|----------||--0-0-0-0-0-0-0-0-0-3-3-3-3-3-3-3-|


  S S S S S S S S S S S S S S S S   4x
|-----------------------------------||
|----------------------------------o||
|----------------------------------o||
|-3-5-5-5-5-5-5-5-5-6-6-6-6-5-5-5---||


 Verse
  $
  S S S S S S S S S S S S S S S S   S S S S S S S S S S S S S S S S
|---------------------------------|---------------------------------|
|---------------------------------|---------------------------------|
|---------------------------------|---------------------------------|
|-0-0-0-0-0-0-0-0-0-3-3-3-3-3-3-3-|-3-5-5-5-5-5-5-5-5-6-6-6-6-5-5-5-|


  S S S S S S S S S S S S S S S S   S S S S S S S S S S S S S S S S
|---------------------------------|---------------------------------|
|---------------------------------|---------------------------------|
|---------------------------------|---------------------------------|
|-0-0-0-0-0-0-0-0-0-3-3-3-3-3-3-3-|-3-5-5-5-5-5-5-5-5-6-6-6-6-5-5-5-|


  S S S S S S S S S S S S S S S S   S S S S S S S S S S S S S S S S
|---------------------------------|---------------------------------|
|---------------------------------|---------------------------------|
|---------------------------------|---------------------------------|
|-0-0-0-0-0-0-0-0-0-3-3-3-3-3-3-3-|-3-5-5-5-5-5-5-5-5-6-6-6-6-5-5-5-|


  S S S S S S S S S S S S S S S S   S S S S S S S S S S S S S S S S
|---------------------------------|---------------------------------|
|---------------------------------|---------------------------------|
|---------------------------------|---------------------------------|
|-0-0-0-0-0-0-0-0-0-3-3-3-3-3-3-3-|-3-5-5-5-5-5-5-5-5-6-6-6-6-5-5-5-|


  S S S S S S S S S S S S S S S S   S S S S S S S S S S S S S S S S
|---------------------------------|---------------------------------|
|---------------------------------|---------------------------------|
|---------------------------------|---------------------------------|
|-0-0-0-0-0-0-0-0-0-3-3-3-3-3-3-3-|-3-5-5-5-5-5-5-5-5-6-6-6-6-5-5-5-|


  S S S S S S S S S S S S S S S S   S S S S S S S S S S S S S S S S
|---------------------------------|---------------------------------|
|---------------------------------|---------------------------------|
|---------------------------------|---------------------------------|
|-0-0-0-0-0-0-0-0-0-3-3-3-3-3-3-3-|-3-5-5-5-5-5-5-5-5-6-6-6-6-5-5-5-|


  S S S S S S S S S S S S S S S S   S S S S S S S S S S S S S S S S
|---------------------------------|---------------------------------|
|---------------------------------|---------------------------------|
|---------------------------------|---------------------------------|
|-0-0-0-0-0-0-0-0-0-3-3-3-3-3-3-3-|-3-5-5-5-5-5-5-5-5-6-6-6-6-5-5-5-|


  S S S S S S S S S S S S S S S S   S S S S S S S S S S S S S S S S
|---------------------------------|---------------------------------|
|---------------------------------|---------------------------------|
|---------------------------------|---------------------------------|
|-0-0-0-0-0-0-0-0-0-3-3-3-3-3-3-3-|-3-5-5-5-5-5-5-5-5-6-6-6-6-5-5-5-|


  S S S S S S S S S S S S S S S S   S S S S S S S S S S S S S S S S
|---------------------------------|---------------------------------|
|---------------------------------|---------------------------------|
|---------------------------------|---------------------------------|
|-0-0-0-0-0-0-0-0-0-3-3-3-3-3-3-3-|-3-5-5-5-5-5-5-5-5-6-6-6-6-5-5-5-|


  S S S S S S S S S S S S S S S S   S S S S S S S S S S S S S S S S
|---------------------------------|---------------------------------|
|---------------------------------|---------------------------------|
|---------------------------------|---------------------------------|
|-0-0-0-0-0-0-0-0-0-3-3-3-3-3-3-3-|-3-5-5-5-5-5-5-5-5-6-6-6-6-5-5-5-|


  S S S S S S S S S S S S S S S S   S S S S S S S S S S S S S S S S
|---------------------------------|---------------------------------|
|---------------------------------|---------------------------------|
|---------------------------------|---------------------------------|
|-0-0-0-0-0-0-0-0-0-3-3-3-3-3-3-3-|-3-5-5-5-5-5-5-5-5-6-6-6-6-5-5-5-|


  S S S S S S S S S S S S S S S S   S S S S S S S S S S S S S S S S
|---------------------------------|---------------------------------|
|---------------------------------|---------------------------------|
|---------------------------------|---------------------------------|
|-0-0-0-0-0-0-0-0-0-3-3-3-3-3-3-3-|-3-5-5-5-5-5-5-5-5-6-6-6-6-5-5-5-|


 Chorus
  S  S  S S  S  S S  S  S S  S  S S  S  S S
|-------------------------------------------|
|-------------------------------------------|
|-------------------------------------------|
|-0-10-12-0-10-12-0-10-12-0-10-12-0-10-12-0-|


  S  S S S  S S S  S S S  S S S  S S S
|--------------------------------------|
|--------------------------------------|
|--------------------------------------|
|-0-10-9-0-10-9-0-10-9-0-10-9-0-10-9-0-|


  S S S S S S S S S S S S S S S S   S S S S S S S S S S S S S S S S
|---------------------------------|---------------------------------|
|---------------------------------|---------------------------------|
|---------------------------------|---------------------------------|
|-0-5-7-0-5-7-0-5-7-0-5-7-0-5-7-0-|-0-5-3-0-5-3-0-5-3-0-5-3-0-5-3-0-|


  S  S  S S  S  S S  S  S S  S  S S  S  S S
|-------------------------------------------|
|-------------------------------------------|
|-------------------------------------------|
|-0-10-12-0-10-12-0-10-12-0-10-12-0-10-12-0-|


  S  S S S  S S S  S S S  S S S  S S S
|--------------------------------------|
|--------------------------------------|
|--------------------------------------|
|-0-10-9-0-10-9-0-10-9-0-10-9-0-10-9-0-|


                                                           To Coda
  S S S S S S S S S S S S S S S S   S S S S S S S S S S S S S S S S
|---------------------------------|---------------------------------||
|---------------------------------|---------------------------------||
|---------------------------------|---------------------------------||
|-0-5-7-0-5-7-0-5-7-0-5-7-0-5-7-0-|-0-5-3-0-5-3-0-5-3-0-5-3-0-5-3-0-||


                                      1.,2.,3.
    S S S S S S S S S S S S S S S S   S S S S S S S S S S S S S S S S
||----------------------------------|-----------------------------------||
||o---------------------------------|----------------------------------o||
||o---------------------------------|----------------------------------o||
||--0-0-0-0-0-0-0-0-0-3-3-3-3-3-3-3-|-3-5-5-5-5-5-5-5-5-6-6-6-6-5-5-5---||


  4.
                    D.S. al Coda
  S S S S S S S S S S S S S S S S
|---------------------------------||
|---------------------------------||
|---------------------------------||
|-3-5-5-5-5-5-5-5-5-6-6-6-6-5-5-5-||


  &
  S  S  S S  S  S S  S  S S  S  S S  S  S S
|-------------------------------------------|
|-------------------------------------------|
|-------------------------------------------|
|-0-10-12-0-10-12-0-10-12-0-10-12-0-10-12-0-|


  S  S S S  S S S  S S S  S S S  S S S
|--------------------------------------|
|--------------------------------------|
|--------------------------------------|
|-0-10-9-0-10-9-0-10-9-0-10-9-0-10-9-0-|


  S S S S S S S S S S S S S S S S   S S S S S S S S S S S S S S S S
|---------------------------------|---------------------------------|
|---------------------------------|---------------------------------|
|---------------------------------|---------------------------------|
|-0-5-7-0-5-7-0-5-7-0-5-7-0-5-7-0-|-0-5-3-0-5-3-0-5-3-0-5-3-0-5-3-0-|


  S  S  S S  S  S S  S  S S  S  S S  S  S S
|-------------------------------------------|
|-------------------------------------------|
|-------------------------------------------|
|-0-10-12-0-10-12-0-10-12-0-10-12-0-10-12-0-|


  S  S S S  S S S  S S S  S S S  S S S
|--------------------------------------|
|--------------------------------------|
|--------------------------------------|
|-0-10-9-0-10-9-0-10-9-0-10-9-0-10-9-0-|


  S S S S S S S S S S S S S S S S   S S S S S S S S S S S S S S S S
|---------------------------------|---------------------------------|
|---------------------------------|---------------------------------|
|---------------------------------|---------------------------------|
|-0-5-7-0-5-7-0-5-7-0-5-7-0-5-7-0-|-0-5-3-0-5-3-0-5-3-0-5-3-0-5-3-0-|


   Outro
    S  S  S S  S  S S  S  S S  S  S S  S  S S
||--------------------------------------------|
||o-------------------------------------------|
||o-------------------------------------------|
||--0-10-12-0-10-12-0-10-12-0-10-12-0-10-12-0-|


  S  S S S  S S S  S S S  S S S  S S S
|---------------------------------------|
|---------------------------------------|
|---------------------------------------|
|-0-10-9-0-10-9-0-10-9-0-10-9-0-10-9-0--|


                                    1.,2.,3.
  S S S S S S S S S S S S S S S S   S S S S S S S S S S S S S S S S
|---------------------------------|----------------------------------||
|---------------------------------|---------------------------------o||
|---------------------------------|---------------------------------o||
|-0-5-7-0-5-7-0-5-7-0-5-7-0-5-7-0-|-0-5-3-0-5-3-0-5-3-0-5-3-0-5-3-0--||


  4.
  S S S S S S S S S S S S S S S S   H    H
|---------------------------------|-----------*|
|---------------------------------|-----------*|
|---------------------------------|-----------*|
|-0-5-3-0-5-3-0-5-3-0-5-3-0-5-3-0-|-0---------*|






Duration Legend
---------------
W - whole; H - half; Q - quarter; E - 8th; S - 16th; T - 32nd; X - 64th; a - acciaccatura
+ - note tied to previous; . - note dotted; .. - note double dotted
Uncapitalized letters represent notes that are staccato (1/2 duration)
Irregular groupings are notated above the duration line
Duration letters will always appear directly above the note/fret number it represents the
duration for.  Duration letters with no fret number below them represent rests.  Multi-
bar rests are notated in the form Wxn, where n is the number of bars to rest for.  Low
melody durations appear below the staff

Tablature Legend
----------------
 h   - hammer-on
 p   - pull-off
 b   - bend
 pb  - pre-bend
 r   - bend release (if no number after the r, then release immediately)
 /\  - slide into or out of (from/to "nowhere")
 s   - legato slide
 S   - shift slide
<n> - natural harmonic
[n]  - artificial harmonic
n(n) - tapped harmonic
 ~   - vibrato
 tr  - trill
 T   - tap
 TP  - trem. picking
 PM  - palm muting
\n/  - tremolo bar dip; n = amount to dip
 \n  - tremolo bar down
 n/  - tremolo bar up
/n\  - tremolo bar inverted dip
 =   - hold bend; also acts as connecting device for hammers/pulls
 <> - volume swell (louder/softer)
 x   - on rhythm slash represents muted slash
 o   - on rhythm slash represents single note slash

Misc Legend
-----------
 |  - bar
||  - double bar
||o - repeat start
o|| - repeat end
*|  - double bar (ending)
 :  - bar (freetime)
 $  - Segno
 &  - Coda
Tempo markers - <E/E./Q/Q./H/H.> = BPM(8/16=s8/s16), where s8 = swing 8ths, s16 = swing 16ths
"            
Submit corrections

comments powered by Disqus
↑ Back to top | Filter Bass for Hey Man Nice Shot. Lyrics for acoustic guitar and electric guitar. 1 Tablatures and chords are parodies/interpretations of the original songs. You may use it for private study, scholarship, research or language learning purposes only