» » »

Filter, Hey Man Nice Shot Tabs (ver.1)

Artists:  A B C D E F G H I J K L M N O P Q R S T U V W X Y Z # 

Hey Man Nice Shot Tabs (ver.1)

Filter Tabs
Rating:
4/5 (6 votes)
Hey Man Nice Shot lessons Tabs too difficult? Try these video lessons and learn fast
                "
Tuning: drop-D (low to high - D-A-D-G-B-E)

Isn't this song great or what? I'll tab the live version (from Family values
tour '98) 'cuz it's much much better than the studio one. You don't have to be
a professional to take it off, it's very easy to play it. As the live version
is 7:19 long, I won't tab it in order, I'll just tab each riff, so you need to
listen the song to get when which part goes. I hope you'll be satisfied.

v - vibrato
h - hammer on
p - pull off
/ - slide up
~ - let ring
x - (palm)muted
> - volume swell
<6> harmonic(ghost note)

Intro/Verses (a lot of improvization)
E |-----------------------------------------------------------------|
B |-------------------------------------------------3~~~~~~~~~~~~---|
G |---------------------------------2~~~~~~~~~~~~~~-2~~~~~~~~~~~~---|
D |-----------------------------------------------------------------|
A |-0>>>>>>>>>>>>>>>>>>>>>>>>>>>>>>---------------------------------|
D |-0>>>>>>>>>>>>>>>>>>>>>>>>>>>>>>---------------------------------|
    fade in with volume swell

E |-----------------------------------------------------------------|
B |-----------------------------------------------------------------|
G |-----------------------------------------------------------------|
D |-----------------------------------------------------------------|
A |-------------------------------------------------------------x---|
D |<6>~~~~~~~~~~~~~~~~~~~~~~~~~~~~~~~~~~~~~~~~~~~~~~~~~~~~~~~~~-x---|

E |-----------------------------------------------------------------|
B |---------------------------------3~~~~~~~~~~~~~~~~~~~~~~~~~~~~~~-|
G |-------------------------------------2~~~~~~~~~~~~~~~~~~~~~~~~~~-|
D |-----------------------------------------------------------------|
A |-x---0~~~~~~~~~~~~~~~~~~~~~~~~~~~~~~~~~~~~~~~~~~~~~~~~~~~~~~~~~~-|
D |-x---0~~~~~~~~~~~~~~~~~~~~~~~~~~~~~~~~~~~~~~~~~~~~~~~~~~~~~~~~~~-|


Bridge
E |-----------------------------------------------------------------|
B |-----------------------------------------------------------------|
G |------------10101010--10101010--1010101010101010---5-5-5-5-5-5-5-|
D |-------------x-x-x-x---x-x-x-x---x-x-x-x-x-x-x-x---x-x-x-x-x-x-x-|
A |-0-0-x-x-0-x-8-8-8-8---8-8-8-8---8-8-8-8-8-8-8-8---3-3-3-3-3-3-3-|
D |-0-0-x-x-0-x-----------------------------------------------------|

E |-----------------------------------------------------------------|
B |-----------------------------------------------------------------|
G |------------10101010--10101010--1010101010101010-----------------|
D |-------------x-x-x-x---x-x-x-x---x-x-x-x-x-x-x-x-----------------|
A |-0-0-x-x-0-x-8-8-8-8---8-8-8-8---8-8-8-8-8-8-8-8--10101010101010-|
D |-0-0-x-x-0-x--------------------------------------10101010101010-|
                                                     these are 10's


Chorus
E |-----------------------------------------------------------------|
B |-----------------------------------------------------------------|
G |-----------------------------------------------------------------|
D |-----------------------------------------------------------------|
A |-010h12010h12010h12010h12010h120-010p9-010p9-010p9-010p9-010p9-0-|
D |-010h12010h12010h12010h12010h120-010p9-010p9-010p9-010p9-010p9-0-|
    these are 0's, 10's, and 12's

E |-----------------------------------------------------------------|
B |-----------------------------------------------------------------|
G |-----------------------------------------------------------------|
D |-----------------------------------------------------------------|
A |-0-5h7-0-5h7-0-5h7-0-5h7-0-5h7-0-0-5p3-0-5p3-0-5p3-0-5p3-0-5p3-0-|
D |-0-5h7-0-5h7-0-5h7-0-5h7-0-5h7-0-0-5p3-0-5p3-0-5p3-0-5p3-0-5p3-0-|


Fill in after chorus
E |-----------------------------------------------------------------|
B |-----------------------------------------------------------------|
G |-----------------------------------------------------------------|
D |-15p14v~~~~~~~~~~~~~~~~~~~~~~~~~~~~~~~~~~~~~~~~~~~~~~~~~~~~~~~~~-|
A |-----------------------------------------------------------------|
D |-----------------------------------------------------------------|


Interlude
E |-----------------------------------------------------------------|
B |-----------------------------------------------------------------|
G |-----------------------------------------------------------------|
D |-----------------------------------------------------------------|
A |-------------3v~~~~~~~~~-5v~~~~~-------------3v~~~~~~~~~---------|
D |-0~~~~~~~~~~---------------------0~~~~~~~~~~-------------3v~~~~~-|


Outro
E |-----------------------------------------------------------------|
B |(3)--------------------------------------------------------------|
G |(2)--------------------------------------------------------------|
D |-0//////////////////////////////////////////////////////////////-|
A |-0//////////////////////////////////////////////////////////////-|
D |-0//////////////////////////////////////////////////////////////-|
    wait a little while and then start sliding towards 12th fret and
    then repeat it few times
"            

comments powered by Disqus
↑ Back to top | Filter Tabs for Hey Man Nice Shot. Lyrics for acoustic guitar and electric guitar. Tablatures and chords are parodies/interpretations of the original songs. You may use it for private study, scholarship, research or language learning purposes only