» » »

Filter-Iwillleadyou Tabs (ver.1)

Artists:  A B C D E F G H I J K L M N O P Q R S T U V W X Y Z # 

Filter-Iwillleadyou Tabs (ver.1)

Filter
Rating:
0/5 (0 votes)

Hard to play? Try these video lessons and learn fast.
                
	TUNING: drop d (D,A,D,G,B,E)
 

     INTRO:
 
    E|--------------------------------------|
    B|--------------------------------------| 
    G|--------------------------------------|
    D|--0-3-5---0-3-5--0-3-5--0-3-5---0000--|
    A|--0-3-5---0-3-5--0-3-5--0-3-5---0000--|
    D|--0-3-5---0-3-5--0-3-5--0-3-5---0000--|

     PRE-CHORUS:

    E|--------------------|
    B|--------------------|
    G|--------------------|
    D|--------------------|
    A|--000----------111--|
    D|------000--333------|

     CHORUS:

    E|--------------------------------------------------------|
    B|--------------------------------------------------------|
    G|--11----------------------------------------------------|
    D|---x-- play that 6x then ---10-- play that 6x as well --|
    A|---9-------------------------8--------------------------| 
    D|---0-------------------------8--------------------------|
            
Hard to play? Try these video lessons and learn fast. | Correct




comments powered by Disqus
↑ Back to top | Tablatures and chords are parodies/interpretations of the original songs. You may use it for private study, scholarship, research or language learning purposes only