>
 >
Filter Captain Bligh

Filter Captain Bligh Guitar Tabs

Filter - Filter Captain Bligh chords, tabs, tablatures, lyrics

Guitar lessons | Add/correct | Request | Top 50 tabs Artists:  A B C D E F G H I J K L M N O P Q R S T U V W X Y Z 0-9

Filter Captain Bligh Guitar Tabs – Filter

CD, Sheet music, Poster

Do you like Filter Captain Bligh? Share with your friends now
Tabs

Solo included

This tab was taken from a Filter Guitar Lesson With Geno Lenardo CD.
And be sure to check out Guitar World magazines for the ad!



Sounds best when played on Fender Strats or Teles.

!**Drop D Tuning**!

e|------|-----------------|------------------------|
B|------|-----------------|------------------------|
G|------|*----------------|-----------------------*|
D|------|*----------------|-----------------------*|
A|------|-----------------|------------------------|
D|---0-0|--0-10-12-0-12\0-|--10-12-0-10-12-12-0-0--|



e|----------|------------|----------|---------|
B|----------|------------|----------|---------|
G|----------|------------|----------|---------|
D|-10-10-10-|10-10-10----|---5-5-5--|--3-3-3--|
A|--8--8--8-|-8--8--8--0-|---3-3-3--|--1-1-1--|
D|--8--8--8-|-8--8--8--0-|---3-3-3--|--1-1-1--|

Chorus:

e|----------------------------------|
B|----------------------------------|
G|*---------------------------------|
D|*-14---14----14-14-14--14-----11--|
A|--12---12----12-12-12--12--0---9--|
D|---0----0-----0--0--0---0--0---9--|


e|---------------------------------|
B|---------------------------------|
G|---------------------------------|
D|--9-11--9-11--9-11-11---5/8-10-8-|
A|--9--9--9--9--9--9--9-0-5/8--8-8-|
D|--9--9--9--9--9--9--9-0-5/8--8-8-|

                       _________________________________
                       |1.                               |
e|----------------------|------------------------------|
B|----------------------|------------------------------|
G|----------------------|-----------------------------*|
D|--10-8-10---10--7--6--|-----3--3-x-3-----3--3-3-3/12*|
A|---8-8--8----8--7--6--|--0--3--3-x-3-----3--3-3-3/12-|
D|---8-8--8----8--7--6--|--0--3--3-x-3---0-3--3-3-3/12-|


  _________________________
  | 2.
e|---------------------------------|
B|---------------------------------|
G|---------------------------------|
D|--(6)---3-3-3-3--1-1-1-1-1-1-1---|
A|--(6)-0-3-3-3-3--1-1-1-1-1-1-1---|
D|--(6)-0-3-3-3-3--1-1-1-1-1-1-1-0-|

Solo:

e|--------------------------------------------------------------------------|
B|--------------------------------------------------------------------------|
G|*--14-14-17--14-12/14-14-12-14/15\14-12--12^14--14---12^14-14---12^14-14-*|
D|*---0--0--0---0--0-----0--0--0--------0---0------0----0-----0----0-----0-*|
A|--------------------------------------------------------------------------|
D|--------------------------------------------------------------------------|


e|---------------------------------------------------------------------|
B|---------------------------------------------------------------------|
G|--14-15-17-15-14-12-10\9-9/10-9--7-9-7-5-5-7-5/7-9-7-9-10--9/10--12--|
D|---0--0--0--0--0--0--0---0----0--0-0-0-0-0-0-0---0-0-0--0--0---------|
A|---------------------------------------------------------------------|
D|---------------------------------------------------------------------|


Outro:
(On Acoustic)
                                   (Repeat x4)
e|-------------------------------------------|
B|-------------------------------------------|
G|*-----------------------------------------*|
D|*---5-5--8-8-8--x---3-3--3--3-3-3-3---3---*|
A|----5-5--8-8-8--x-0-3-3--3--3-3-3-3---3-0--|
D|----5-5--8-8-8--x-0-3-3--3--3-3-3-3---3-0--|


Outro Melody:                 ________________
                              | 1.    
e|-----------------------------|-------------|
B|-----------------------------|---------~~~~|
G|*------14------14/16--16-----|-----17--17-*|
D|*----------------------------|------------*|
A|---12------12-------------14-|-------------|
D|-----------------------------|-------------|


  ______________
  | 2.
e|-----------I|
B|-------~~~~I|
G|--14--14---I|
D|-----------I|
A|-----------I|
D|-----------I|





Comments


Popular Filter tabs & chords
Jurassitol Bass Tabs
Miss Blue Bass Tabs
Trip Like I Do Bass Tabs
Welcome To The Fold Bass Tabs
American Cliche Tabs
Hey Man Tabs
Hey Man Nice Shot 1 Tabs
Sand Tabs
Take A Picture Tabs
Welcome To The Fold 1 Tabs


Song lyrics



↑ Back to top | Tablatures and chords are parodies/interpretations of the original songs. You may use it for private study, scholarship, research or language learning purposes only
© 2014 AZChords.com Contact us | Privacy policy | DMCA | Add/correct tabs | Request tabs | Top 50 tabs