» » »

Filter-Cant You Trip Like I Do Tabs (ver.1)

Artists:  A B C D E F G H I J K L M N O P Q R S T U V W X Y Z # 

Filter-Cant You Trip Like I Do Tabs (ver.1)

Filter
Rating:
0/5 (0 votes)

Hard to play? Try these video lessons and learn fast.
                Can't You Trip Like I Do
Filter

Standard tuning

Main Riff
~~~~~~~~~
E--------------------------------------------------
B--------------------------------------------------
G--5-----------------------------------------------  This Repeats until
D--5----7----2--X-X-X-X-X-X-X-X-2--X-X-X-X-X-X-X-X- the one-string part
A--3----7----2--X-X-X-X-X-X-X-X-2--X-X-X-X-X-X-X-X-  later on in the 
E-------5----0--X-X-X-X-X-X-X-X-0--X-X-X-X-X-X-X-X-        song


Fill 1 (the one-string part)
~~~~~~~~~~~~~~~~~~~~~~~~~~~~
E---------------------------
B---------------------------
G--10--7--6--4--10--7--6--4-   This repeats until the main riff comes back
D---------------------------
A---------------------------
E---------------------------
            
Hard to play? Try these video lessons and learn fast. | Correct




comments powered by Disqus
↑ Back to top | Tablatures and chords are parodies/interpretations of the original songs. You may use it for private study, scholarship, research or language learning purposes only