» » »

Filter, Dose Tabs (ver.2)

Artists:  A B C D E F G H I J K L M N O P Q R S T U V W X Y Z # 

Dose Tabs (ver.2)

Filter Tabs
Rating:
0/5 (0 votes)
Dose lessons Tabs too difficult? Try these video lessons and learn fast
                --------------------------------------------------------------------------
                      Filter - Dose
--------------------------------------------------------------------------

Tuning:Drop D

Intro:

e|-----------------------------------------|
B|---5+-----5+-----------------------------|
G|-----5+-------5+~~~(6)~~~(5)~~-----------|
D|-----------------------------------------|
A|-----------------------------------------|
E|-----------------------------------------|

e|-----------------------------------------|
B|-----------------------------------------|
G|---5+~~(7)~(8)~~(5)----------------------|
D|-----------------------------------------|
A|-----------------------------------------|
E|-----------------------------------------|

Intro Guitar 1:
e|-----------------------------------------------------------------|
B|-----------------------------------------------------------------|
G|-----------------------------------------------------------------|
D|---0---0h2-2-2-2-2-2-----0--0h2-2-2-2-2-2---------10-10-10-10----|
A|---0---0h2-2-2-2-2-2-----0--0h2-2-2-2-2-2---------10-10-10-10----|
E|---0---0h2-2-2-2-2-2-----0--0h2-2-2-2-2-2---------10-10-10-10----|

e|------------------------------------|
B|------------------------------------|
G|------------------------------------|
D|---0----6-6-6-5-5-5-4-4-4-3-3-3-----|
A|---0----6-6-6-5-5-5-4-4-4-3-3-3-----|
E|---0----6-6-6-5-5-5-4-4-4-3-3-3-----|

Verse

e|-----------------------------|
B|-----------------------------|
G|-----------------------------|
D|--0---4/5~--6-6-6-6----------|
A|--0---5/6~--6-6-6-6----------|
E|--0---------6-6-6-6----------|

pre cho/chorus
e|-----------------------------------------------------------------------|
B|-----------------------------------------------------------------------|
G|-----------------------------------------------------------------------|
D|---10/12-12-12-12-----11-11-10-10----0-3---0-3-0-0-0-0h3-0-3-0-3-0-3-0-|
A|---10/12-12-12-12-----11-11-10-10----0-3---0-3-0-0-0-0h3-0-3-0-3-0-3-0-|
E|---10/12-12-12-12-----11-11-10-10----0-3---0-3-0-0-0-0h3-0-3-0-3-0-3-0-|

e|---------------------------------------------------------------------|
B|---------------------------------------------------------------------|
G|---------------------------------------------------------------------|
D|--10-10-10-10---7-7-7-7--6-6-5-5-0-3-0-3-0--10\--6-6-5-5-0-3-0-3-0---|
A|--10-10-10-10---7-7-7-7--6-6-5-5-0-3-0-3-0--10\--6-6-5-5-0-3-0-3-0---|
E|--10-10-10-10---7-7-7-7--6-6-5-5-0-3-0-3-0--10\--6-6-5-5-0-3-0-3-0---|

Verse
pre cho/chorus


then..

e|-----------------------|
B|-----------------------|
G|-----------------------|
D|--10-10-10-10--x-x-x-x-|
A|--10-10-10-10--x-x-x-x-|
E|--10-10-10-10--x-x-x-x-|


Intro Guitar 1
pre chorus
chorus 2x





| /  slide up
| \  slide down
| h  hammer-on
| p  pull-off
| ~  vibrato
| +  harmonic
| x  Mute note
=============================================================================
            
Submit corrections

comments powered by Disqus
↑ Back to top | Filter Tabs for Dose. Lyrics for acoustic guitar and electric guitar. Tablatures and chords are parodies/interpretations of the original songs. You may use it for private study, scholarship, research or language learning purposes only