>
 >
Columind

Columind Guitar Tabs

Filter - Columind chords, tabs, tablatures, lyrics

Guitar lessons | Add/correct | Request | Top 50 tabs Artists:  A B C D E F G H I J K L M N O P Q R S T U V W X Y Z 0-9

Columind Guitar Tabs – Filter

CD, Sheet music, Poster

Do you like Columind? Share with your friends now
Tabs
INFOS
   2 Guitars (heavy distorted)
   Gituar 2 with WAH-Effect


STRUCTURE
Verse 1:     Riff 1  x2
             Riff 2
             Riff 3
             Riff 2
Chorus 1:    Riff 4  
Verse 2:     Riff 2
             Riff 3
             Riff 2
Chorus 2:    Riff 4  
End:	     GIT 1: Riff 3  x4  /  GIT 2: Riff 5 x4
	     GIT 1: Riff 4      /  GIT 2: Riff 6 x4
	     GIT 1: Riff 4      /  GIT 2: Riff 7 x4
	     Riff 1


RIFFS

Riff 1

    P.M.---]
e--------------------------------------------------------------------------------
B--------------------------------------------------------------------------------
G--------------------------------------------------------------------------------
D-----2--2---4-\-----------------------------------------------------------------
A-----0--0---2-\-----------------------------------------------------------------
E-----0--0---2-\-----------------------------------------------------------------



Riff 2

    P.M.---]                          P.M.---]
e--------------------------------------------------------------------------------
B--------------------------------------------------------------------------------
G--------------------------------------------------------------------------------
D-----2--2---4-\------------------------2--2---4-\-------------------------------
A-----0--0---2-\------------------------0--0---2-\----10--9--8--7--7-------------
E-----0--0---2-\------------------------0--0---2-\----11-10--9--8--7-------------

    P.M.---]                          P.M.---]
e--------------------------------------------------------------------------------
B--------------------------------------------------------------------------------
G--------------------------------------------------------------------------------
D-----2--2---4-\------------------------2--2---4-\-------------------------------
A-----0--0---2-\----7--7--8--9-10-------0--0---2-\----10--9--8--7--7-------------
E-----0--0---2-\----7--8--9-10-11-------0--0---2-\----11-10--9--8--7-------------



Riff 3

     P.M.----]        P.M.----]        P.M.----]       P.M.----]
e--------------------------------------------------------------------------------
B--------------------------------------------------------------------------------
G--------------------------------------------------------------------------------
D-----2-2-2-2---8------2-2-2-2---7------2-2-2-2---8-----2-2-2-2---7--------------
A-----0-0-0-0---6------0-0-0-0---5------0-0-0-0---6-----0-0-0-0---5--------------
E-----0-0-0-0---6------0-0-0-0---5------0-0-0-0---6-----0-0-0-0---5--------------



Riff 4

e--------------------------------------------------------------------------------
B--------------------------------------------------------------------------------
G--------10-10--7----------7-7--10--7----------10-10--7----------7-7--10--7------
D--7--7--10-10--7----7--7--7-7--10--7----7--7--10-10--7----7--7--7-7--10--7------
A--7--7---8--8--5----7--7--5-5---8--5----7--7---8--8--5----7--7--5-5---8--5------
E--5--5---8--8--5----5--5--5-5---8--5----5--5---8--8--5----5--5--5-5---8--5------



Riff 5

e--------------------------------------------------------------------------------
B--------------------------------------------------------------------------------
G--------------------------------------------------------------------------------
D---7-7-7-7-7-7/10/12\10---------------------------------------------------------
A--------------------------------------------------------------------------------
E--------------------------------------------------------------------------------



Riff 6

e--------------------------------------------------------------------------------
B--------------------------------------------------------------------------------
G--------------------------------------------------------------------------------
D---7-7/17\10/12/14--------------------------------------------------------------
A--------------------------------------------------------------------------------
E--------------------------------------------------------------------------------


Riff 7

e--------------------------------------------------------------------------------
B--------------------------------------------------------------------------------
G--------------------------------------------------------------------------------
D---7-7-7-7-7/9/10/12\10h12-10-10---------------------------------------------------
A--------------------------------------------------------------------------------
E--------------------------------------------------------------------------------





Comments


Popular Filter tabs & chords
American Clichee Bass Tabs
I Will Lead You Bass Tabs
Happy Together Chords
Take A Picture 3 Chords
Thanks Bro Chords
Its Just You Tabs
Where Do We Go 2 Tabs
Where Do We Go From Here? Tabs
Happy Together Ukulele
Missing Ukulele


Song lyrics



↑ Back to top | Tablatures and chords are parodies/interpretations of the original songs. You may use it for private study, scholarship, research or language learning purposes only
© 2014 AZChords.com Contact us | Privacy policy | DMCA | Add/correct tabs | Request tabs | Top 50 tabs