>
 >
Transformation

Transformation Guitar Tabs

Fifty Four - Transformation chords, tabs, tablatures, lyrics

Guitar lessons | Add/correct | Request | Top 50 tabs Artists:  A B C D E F G H I J K L M N O P Q R S T U V W X Y Z 0-9

Transformation Guitar Tabs – Fifty Four

CD, Sheet music, Poster

Do you like Transformation? Share with your friends now
Tabs
Band: Fifty Four


Tuning: Normal

Riff 1: 10's.
E------------------------------------------------|
B-------8-----------------8----------------------|
G-555-7---5-77777---555-7---7-101010101010-------|
D------------------------------------------------|
A------------------------------------------------|
E----------------------------------------- x's 2-|

Riff 2:
E---------------------------------------------|
B---------------------------------------------|
G---------------------------------------------|
D-----8-5---------------8-5-------------------|
A-555-6-3-8-101010--555-6-3-8-1010-8888-------|
E-333-----6-888888--333-----6-8888-6666 x's 4-|

Riff 1 once

Riff 3:
E----------------------------------------------|
B----------------------------------------------|
G----------------------------------------------|
D----------------------------------------------|
A-----6-3----------------6-3-------------------|
E-333-----6-8888888--333-----6-8888-6666 x's 4-|

Riff 2 x's 2

Riff 4:
E-----------------------------------------|
B-----------------------------------------|
G-----------------------------------------|
D-----------------------------------------|
A-5555-55-5/888888-6666-66-6/999999-------|
E-3333-33-3/666666-4444-44-4/777777 x's 4-|

Riff 1 once

Riff 3 x's 4

Riff 2 x's 2

Riff 4 x's 4

Riff 5: Solo Starts 3rd time.
E------------------------------------------------------------------------|
B------------------------------------------------------------------------|
G------------------------------------------------------------------------|
D------------------------------------------------------------------------|
A-55------888888--66------3/5-3/5-3--55------888888--66------3-4-6-------|
E-33-0000-666666--44-0000-1/3-1/3-1--33-0000-666666--44-0000-1-2-4 x's 4-|
pm   ....            ....               ....            ....

Riff 1 x's 2

Riff 4 x's 8 (solo ends when this starts)

Outro:
E-------------|
B-------------|
G-------------|
D-------------|
A-3-4-6-------|
E-1-2-4 x's 4-|

Solo:
E-----------------------------------------------10-131313-10-131313-10-13/17-15-13-12~-|
B-17-202020 x's 6--20-19-17-16-15-14-13-12-11~-----------------------------------------|
G--------------------------------------------------------------------------------------|
D--------------------------------------------------------------------------------------|
A--------------------------------------------------------------------------------------|
E--------------------------------------------------------------------------------------|

E-------------------------------------------------------------------------------------|
B--1-333 x's 6--1-3/7-6-5-4--1-333 x's 4----------------------------------------------|
G-------------------------------------------------------------------------------------|
D-----------------------------------------5-7-9-----------------------9-8-7-----------|
A------------------------------------------------7-9-11-5/8~---11-13---------3-5--6-8-|
E-------------------------------------------------------------------------------------|





Comments


Popular Fifty Four tabs & chords
Burning Tabs
Cancelled Check Tabs
Cliche Tabs
Climbing Tabs
Come Back Tabs
Here I Am Tabs
Sweaty Palms Tabs
That Day Tabs


Song lyrics



↑ Back to top | Tablatures and chords are parodies/interpretations of the original songs. You may use it for private study, scholarship, research or language learning purposes only
© 2014 AZChords.com Contact us | Privacy policy | DMCA | Add/correct tabs | Request tabs | Top 50 tabs