>
 >
Resolution

Resolution Guitar Tabs

Fifteen - Resolution chords, tabs, tablatures, lyrics

Guitar lessons | Add/correct | Request | Top 50 tabs Artists:  A B C D E F G H I J K L M N O P Q R S T U V W X Y Z 0-9

Resolution Guitar Tabs – Fifteen

CD, Sheet music, Poster

Do you like Resolution? Share with your friends now
Tabs
-------------------------------------------------------------------------------
                             Fifteen - Resolution
-------------------------------------------------------------------------------

Opening riff    h= harmonics

e----------------------|
B----------------------|
G----------------------|
D---------------5h-----|
A-00-4-0----5-4h--5h---|
E--------33---------5h-|

Lead part that plays once during the intro
E--------------------------------------------------------------------|
B--------------------------------------------------------------------|
G--------------------------------------------------------------------|
D--------------------------------------------------------------------|
A-0-3b-0-3b-0-3b-0-3b-0-3-0-3-0--------------------------------------|
E--------------------------------------------------------------------|

the verse is A,G,Gb,G
one guitar plays bar chords the other follows this joint
e------------------------------|
B------------------------------|
G------------------------------|
D------------------------------|
A-00-4-0----5---44---5------5--|
E--------33---3-22---2-33---3--|

other verse towards the end
'Say you got a problem, and you want a solution'
A,D,G,D

Chorus
E--------------------------------------------------------------------|
B-------4--6--7-----7------------------------------------------------|
G-7--4--4--6--7-----7------------------------------------------------|
D-7--4--4--6--7--5--7------------------------------------------------|
A-7--4--2--4--5--5--5------------------------------------------------|
E-5--2-----------3---------------------------------------------------|

Chorus Lead guitar
E-5-5----5-5---------------------------------------------------------|
B-5-5----5-5----7b-5-----5b------------------------------------------|
G-----7b-----7b-7b-5-5-7-5b------------------------------------------|
D--------------------------------------------------------------------|
A--------------------------------------------------------------------|
E--------------------------------------------------------------------|

e-----------------------------|
B--------------------3--------|
G-------------2-00-4--------2-|
D------2-00-4----------00-4---|
A-00-4------------------------|
E-----------------------------|

Coda(end of the song part)
E--------------------------------------------------------------------|
B-2--3-----3---------------------------------------------------------|
G-2--2--0--2---------------------------------------------------------|
D-2--0--0--0---------------------------------------------------------|
A-0-----2------------------------------------------------------------|
E-------3------------------------------------------------------------|
So you've got a problem.../He needs love...





Comments


Popular Fifteen tabs & chords
Armed Gangs Bass Tabs
Fation 1 Bass Tabs
Jesus Bass Tabs
World Starvation Bass Tabs
World Starvation 1 Bass Tabs
Jesus Chords
Hey Joe Tabs
Liberation Tabs
The End Tabs
Grow Up Ukulele


Song lyrics



↑ Back to top | Tablatures and chords are parodies/interpretations of the original songs. You may use it for private study, scholarship, research or language learning purposes only
© 2014 AZChords.com Contact us | Privacy policy | DMCA | Add/correct tabs | Request tabs | Top 50 tabs