» » »

Mount Shrink Wrap Tabs (ver.1)

Artists:  A B C D E F G H I J K L M N O P Q R S T U V W X Y Z # 

Mount Shrink Wrap Tabs (ver.1)

Fifteen
Rating:
0/5 (0 votes)

Hard to play? Try these video lessons and learn fast.
                -------------------------------------------------------------------------------
                        Fifteen - Mount Shrink Wrap
-------------------------------------------------------------------------------


              ( `````````  means to  Repeat)

                       (INTRO part 1)
e:--------------------------------------------------------------|  
B:--------------------------------------------------------------| 
G:---------------------------------------------5------4---------| 
D:---------4--------------5---------------------------------5---| 
A:---5----------5----3-------3----------------------------------| 
E:------------------------------------3`````````----------------| 

  (This is palm muted. Play this x amount of times: ) 
                (INTRO part2)
e:----------------------------------------------------------------| 
B:----------------------------------------------------------------| 
G:-------------------------------------------------5----4---------| 
D:--------4------------5---------------5---- ------------------5--| 
A:---5-------5----3-------3---------------------------------------| 
E:-----------------------------3---3--------3---------------------| 

 (This is the non- muted part. Play this x amount of times) 
(the bend you hear is on the E string fret 3)
e:----------------------------------------------------------------| 
B:----------------------------------------------------------------| 
G:----7```----5```------------------------------------------------| 
D:----7```----5```-----5```------------------ --------------------| 
A:----5```----3```-----5```---------------------------------------| 
E:---------------------3```---------------------------------------| 

  (This is palm muted. Play this x amount of times) 
e:----------------------------------------------------------------| 
B:----------------------------------------------------------------| 
G:-------7```-----5```--------------------------------------------| 
D:-------7```-----5```------5```------------ ---------------------| 
A:-------5```-----3```------5```----------------------------------| 
E:--------------------------3```----------------------------------| 

 (This is the non- muted part. Play this x amount of times) 
e:----------------------------------------------------------------| 
B:----------------------------------------------------------------| 
G:-------------------------------------------------5----4---------| 
D:--------4------------5---------------5---- ------------------5--| 
A:---5-------5----3-------3---------------------------------------| 
E:-----------------------------3---3--------3---------------------|

 (This is the non- muted part. Play this x amount of times) 
e:----------------------------------------------------------------| 
B:----------------------------------------------------------------| 
G:----7```----5```------------------------------------------------| 
D:----7```----5```-----5```------------------ --------------------| 
A:----5```----3```-----5```---------------------------------------| 
E:---------------------3```---------------------------------------| 

       (This is palm muted. Play this x amount of times) 
  (During this,  somewhere jeff throughs in intro part 2 over it) 
e:----------------------------------------------------------------| 
B:----------------------------------------------------------------| 
G:-------7```-----5```--------------------------------------------| 
D:-------7```-----5```------5```------------ ---------------------| 
A:-------5```-----3```------5```----------------------------------| 
E:--------------------------3```----------------------------------| 

 (This is the non- muted part. Play this x amount of times) 
 The ending is just the same three fifths, but just played once each) 
e:----------------------------------------------------------------| 
B:----------------------------------------------------------------| 
G:-------7--------5-----------------------------------------------| 
D:-------7--------5---------5--------------- ---------------------| 
A:-------5--------3---------5-------------------------------------| 
E:--------------------------3-------------------------------------| 

 (This is the non- muted part. Play this once) 
            
Hard to play? Try these video lessons and learn fast. | Correct




comments powered by Disqus
↑ Back to top | Tablatures and chords are parodies/interpretations of the original songs. You may use it for private study, scholarship, research or language learning purposes only