» » »

Slow Kill Tabs (ver.1)

Artists:  A B C D E F G H I J K L M N O P Q R S T U V W X Y Z # 

Slow Kill Tabs (ver.1)

Fields Of The Nephilim
Rating:
0/5 (0 votes)

Hard to play? Try these video lessons and learn fast.
                Music by Fields of the Nephilim, lyrics by Carl McCoy


Well, another great neph song . Guitar 1 is Paul's so
you should use chorus, delay and reverb to get that
ultra-clean sound. Guitar 2 is Peter's, try vintage
overdrive instead. There's another guitar playing
power chords from time to time, but it doesn't matter.

By the way, does anybody have the right lyrics for
this song? Please, e-mail me!!!


Riff 1 (Guitar 1):

e-------8------------------8------------------8-------------
B----10---10-12-10------10---10-12-10------10---10-12-10----
G--9------------------9------------------9------------------
D-----------------------------------------------------------
A-----------------------------------------------------------
E-----------------------------------------------------------

e-------8-----------
B----10---10-12-10--
G--9----------------
D-------------------
A-------------------
E-------------------


Riff 2 (Guitar 2):

e---------------------------------------------------
B---------------------------------------------------
G------------------7--9-------7--9-------7----------
D--7-9--10-9-----7-------7--7-------7--7----10-9-7--
A------------10-------------------------------------
E---------------------------------------------------


Riff 3 (Guitar 1):

e---------------------------------------
B---------------------------------------
G-----9-10----10p9-------8-11---11p8----
D--10------10------10--9------9------9--
A---------------------------------------
E---------------------------------------


Riff 4 (Guitar 2):

e---------
B---------
G---------
D--5---4--
A--3---2--
E---------


Riff 5 (Guitar 1):

e------------0--------------0--------------0----------0---------
B------3---3----3-----3---3----3-----3---3----3-----3----3---3--
G----2---2----------2---2----------2---2----------2--------2----
D--0--------------0--------------0--------------0---------------
A---------------------------------------------------------------
E---------------------------------------------------------------


Riff 6 (Guitar 2):

e-----
B-----
G--7--
D--7--
A--5--
E-----


Riff 7 (Guitar 1):

e-----------------------------------------------------0----
B-----10------12------------10------12-10-------3---3---3--
G--------9-------9----9--------9----------9---2---2--------
D--10------10------10----10------10---------0--------------
A----------------------------------------------------------
E----------------------------------------------------------

e------------0----
B------3---3---3--
G----2---2--------
D--0--------------
A-----------------
E-----------------


Riff 8 (Guitar 2):

e---------
B---------
G--2---7--
D--2---7--
A--0---5--
E---------


Riff 9 (Guitar 1):

e------------0-----------0--
B------3---0---0-------0----
G----0---0-----------0------
D--2---------------2--------
A----------------2----------
E---------------------------


Riff 10 (Guitar 2):

e-----
B-----
G--9--
D--9--
A--7--
E-----


Riff 11 (Guitar 2):

e---------------------------------------
B---------------------------------------
G---------------------------------------
D---------------------------------------
A--0---3---2-------0---3---2-------(0)--
E--------------0---------------0--------



Intro:
Riff 1		Riff 2
Riff 1		Riff 2

Verse:
Riff 1		Riff 2
Riff 1		Riff 2
Riff 1		Riff 2
Riff 1		Riff 2

Bridge:
Riff 3		Riff 4
Riff 3		Riff 4

Chorus:
Riff 5		Riff 6
Riff 7		Riff 8
Riff 7		Riff 8
Riff 9		Riff 10

Verse:
Riff 1		Riff 2
Riff 1		Riff 2
Riff 1		Riff 2
Riff 1		Riff 2

Bridge:
Riff 3		Riff 4
Riff 3		Riff 4

Verse:
Riff 5		Riff 6
Riff 7		Riff 8
Riff 7		Riff 8
Riff 9		Riff 10

Break:
		Riff 11

Verse:
Riff 1		Riff 2
Riff 1		Riff 2
Riff 1		Riff 2
Riff 1		Riff 2

Bridge:
Riff 3		Riff 4
Riff 3		Riff 4

Chorus:
Riff 5		Riff 6
Riff 7		Riff 8
Riff 7		Riff 8
Riff 9		Riff 10

Outro:
		Riff 11

"I, Narackamous, tell you that in two nights Cthulhu will reign once more!"
            
Hard to play? Try these video lessons and learn fast. | Correct




comments powered by Disqus
↑ Back to top | Tablatures and chords are parodies/interpretations of the original songs. You may use it for private study, scholarship, research or language learning purposes only