» » »

Fiddlers Green, Stay By My Side Tabs (ver.1)

Artists:  A B C D E F G H I J K L M N O P Q R S T U V W X Y Z # 

Stay By My Side Tabs (ver.1)

Fiddlers Green Tabs
 Rating:
4/5 (6 votes)
Stay By My Side lessons Tabs too difficult? Try these video lessons and learn fast
1
                Stay By My Side - Fiddler's Green

Standart Tuning EADGHE

Chords:	F#m  : 244222
		A    : 577655
		Hm   : x24432
		H5   : x244xx
		Esus4: 079977
		Dsus4: x57755 or XX0230
		D5   : x577xx
		C#5  : x466xx

CHORUS:

F#m        A
Stay by my side
Esus4		 Dsus4	 Esus4
 And help me through the night
    F#m		 A	Esus4   Dsus4   Esus4
The wind's blowing cold
F#m        A
Stay by my side
Esus4		 Dsus4   Esus4
 Lock out the world tonight
        F#m          A
There's just you and me
   Esus4 (n.c.)	Dsus4 Esus4
So please become reality

VERSE I:

F#m        		   A
Sometimes you feel a stabbing pain
	Hm			 Dsus4   Esus4
Which tells your wicked rambling brain
     F#m         A	Hm   Dsus4   Esus4
That you're all alone
    F#m      	     A
The lights go out all voices die
	 Hm			 Dsus4   Esus4
You're small and fragile but you try
   F#m 	     A	Hm
To roll back the stone

BRIDGE:

(violin plays same two octaves higher)
		D (let ring)
e|------------0-------|	  repeat three times
H|------------3-------|	  (once before each
G|-2-2-1------2-------|	  line of the bridge)
D|-0-----2-0~~~-------|
A|--------------------|
E|--------------------|
		...so could...

D	 		  F#m
  So could you be a place
D			   F#m
  A place for me and all these days
D			F#m
  When all that I know
	    H5   C#5 D5 A
Is that I want you to stay

repeat CHORUS

F#m        		      A
You're still a dream of hope to me
   Hm		   Dsus4  Esus4
An angel of my fantasy
F#m        	  A	 Hm			 Dsus4   Esus4
I want you to be   real
F#m        		   A
So give me shelter keep me warm
	Hm			 Dsus4   Esus4
Find me a highway through the storm
F#m        		   A
I want to go home

repeat BRIDGE

repeat CHORUS

SOLO (I'll tab that later:-)

INTERLUDE:

  C#5 D5 E5	    F#5			 C#5 D5 E5     A
e|-----------------------------------------------------------------|
H|-----------------------------------------------------10----------|
G|-6--7--9-------11-------------------6--7--9--------9-------------|
D|-6--7--9-------11-------------------6--7--9--7/9-7~~~------------|
A|-4--5--7--/12-9~~~------------------4--5--7----------------------|
E|-----------------------------------------------------------------|
			...God speed you to love			God speed
  	  C#5 D5 E5	   F#5		    H5  C#5  D5 A5
e|----------------------------------------------------------------|
H|----------------------------------------------------------------|
G|-------6--7--9-------11---------------4----6---7---6------------|
D|-------6--7--9-------11---------------4----6---7---7--7---------|
A|-------4--5--7--/12-9~~~--------------2----4---5---7--7---------|
E|---------------------------------------------------5--5---------|
  you to love		   Uh, yeah, I want you to stay-ay*...
Singer:  E|--5---4---- *note: here the singer sings first an A-Note, then  a G#-note,
the guitar plays an A-note on both beats Any comments, corrections, qurestions are

Have Fun!
            
Submit corrections

comments powered by Disqus
↑ Back to top | Fiddlers Green Tabs for Stay By My Side. Lyrics for acoustic guitar and electric guitar. 1 Tablatures and chords are parodies/interpretations of the original songs. You may use it for private study, scholarship, research or language learning purposes only