» » »

Down By The Hillside Chords (ver.1)

Artists:  A B C D E F G H I J K L M N O P Q R S T U V W X Y Z # 

Down By The Hillside Chords (ver.1)

Fiddlers Green
Rating:
5/5 (2 votes)

Hard to play? Try these video lessons and learn fast.
                strumming intro/verse
  Em       C          D    C           Em       C          D
e-----0-00-----0-00--------0-0-0-0-00------0-00-----0-00--------0-00-0-|
b-----0-00-----1-11--------1-1-1-1-11------0-00-----1-11--------3-33-3-|
g-----0-00-----0-00--------0-0-0-0-00------0-00-----0-00--------2-22-2-|
d-----2-22---2-2-22-2/4-44-2-0h2-2-22------2-22---2-2-22-2/4-44-4-44-4-|
a---2-2-22-3---3-33-3/5-55-3-3-3-3-33----2-2-22-3---3-33-3/5-55-5-55-5-|
E-0---0-00-----0-00--------0-0-0-0-00--0---0-00-----0-00--------x-xx-x-|

You have to use the chords like on top, other voicings(especially for the d-chord)
dont sound that good. In the chorus and the solo you should use power-chords(take the higher Em!)

Em          C
Down by the hillside
     D           C
In a cave by the sea
                       Em
Lies the heart made of stone
C           D
Waiting For Me
              Em       C
For what can awaken an angel
   D        C
My angel so soon
                     Em
Whose sleep has been taken
C                D
Beneath the cold moon?

Em C D C
Em C D

Em             C
Stars in their orbit
      D                C
Shane pale through the light
                Em
Of the warining moon
   C          D
In midtime of night
               Em          C
Herself in the heavens up above there
    D           C
Her beam on the waves
              Em
I gazed for a while
C           D
On her cold smile

D                Am
Oh, this loss is everywhere
C   (G)       D
Gone - in the wind
D            Am
Oh, we had a dream to share
         C    (G)      Em     C D C
Bring it back,    back again

Em C D

                      Em
There's a stir in the air
      C              D          C
Is it my will on the breezes to toss
                  Em
Like the lone albatross
       C       D
On the harmony there?
                         Em
If I could shake from my wing
     C               D         C
Each hindering, each hindering thing!
                   Em
For the dew of the night
      C              D
Would weight down my flight

D                Am
Oh, this loss is everywhere
C   (G)       D
Gone - in the wind
D            Am
Oh, we had a dream to share
         C    (G)      Em     Em Em
Bring it back,    back again


guitar/fiddle solo
  Am          C           Em             D
e------------------------------------------------------------|
b------------------------------------------------------------|
g----------------------11-11/12-11---------------------------|
d----------12----12-14-------------14-12-14/16-14-12---------|   4x
a-12-14-15----15-------------------------------------15-14---|
E------------------------------------------------------------|

Em(let ring)

                 Em
And true love caresses
   C           D           C
O, leave them, leave them apart
                      Em
They are light on the tresses
    C           D
But lead on the heart


D                Am
Oh, this loss is everywhere
C   (G)       D
Gone - in the wind
D            Am
Oh, we had a dream to share
C     (G)
gone

D                Am
Oh, this loss is everywhere
C   (G)           D
    Gone - in the wind
D            Am
Oh, we had a dream to share
         C    (G)      Em
Bring it back,    back again

C D C
Em C Em(let ring)
            
Hard to play? Try these video lessons and learn fast. | Correct




comments powered by Disqus
↑ Back to top | Tablatures and chords are parodies/interpretations of the original songs. You may use it for private study, scholarship, research or language learning purposes only