» » »

Fiction Plane, Two Sisters Tabs (ver.2)

Artists:  A B C D E F G H I J K L M N O P Q R S T U V W X Y Z # 

Two Sisters Tabs (ver.2)

Fiction Plane Tabs
 Rating:
3.4/5 (9 votes)
Two Sisters lessons Tabs too difficult? Try these video lessons and learn fast
                      ~~~~~~~~~~~~~~~~~~~~~~~~~~
      ~ Artist: Fiction Plane  ~
      ~ Song: Two Sisters      ~
      ~~~~~~~~~~~~~~~~~~~~~~~~~~

Intro/Chorus

e--x-x-7-7-x-x-7-7-x-x-5-5-x-x-5-5-x-x-5-5-x-x-5-5-x-x-7-7-x-x-7-7-x-x-|
a--x-x-7-7-x-x-7-7-x-x-5-5-x-x-5-5-x-x-5-5-x-x-5-5-x-x-7-7-x-x-7-7-x-x-|
d--x-x-9-9-x-x-9-9-x-x-7-7-x-x-7-7-x-x-6-6-x-x-6-6-x-x-8-8-x-x-8-8-x-x-|
g--x-x-9-9-x-x-9-9-x-x-7-7-x-x-7-7-x-x-7-7-x-x-7-7-x-x-9-9-x-x-9-9-x-x-|
b--x-x-7-7-x-x-7-7-x-x-5-5-x-x-5-5-x-x-7-7-x-x-7-7-x-x-9-9-x-x-9-9-x-x-|
E--x-x-7-7-x-x-7-7-x-x-5-5-x-x-5-5-x-x-5-5-x-x-5-5-x-x-7-7-x-x-7-7-x-x-|


e--8-8-x-x-8-8--x-x-3-3-x-x-3-3-x-x-7-7-x-x-7-7-x-x-7-7-x-x-7-7-|
a--8-8-x-x-8-8--x-x-3-3-x-x-3-3-x-x-7-7-x-x-7-7-x-x-7-7-x-x-7-7-|
d--9-9-x-x-9-9--x-x-4-4-x-x-4-4-x-x-9-9-x-x-9-9-x-x-8-8-x-x-8-8-| PLAY 4 TIMES
g--1010x-x-1010-x-x-5-5-x-x-5-5-x-x-9-9-x-x-9-9-x-x-9-9-x-x-9-9-|
b--1010x-x-1010-x-x-5-5-x-x-5-5-x-x-7-7-x-x-7-7-x-x-9-9-x-x-9-9-|
E--8-8-x-x-8-8--x-x-3-3-x-x-3-3-x-x-7-7-x-x-7-7-x-x-7-7-x-x-7-7-|

Verse

e--x-x-3-3-x-x-3-3-x-x-7-7-x-x-7-7-x-x-5-5-x-x-5-5-x-x-5-5-x-x-5-5-|
a--x-x-3-3-x-x-3-3-x-x-7-7-x-x-7-7-x-x-5-5-x-x-5-5-x-x-5-5-x-x-5-5-|
d--x-x-4-4-x-x-4-4-x-x-8-8-x-x-8-8-x-x-5-5-x-x-5-5-x-x-5-5-x-x-5-5-| PLAY 4 TIMES
g--x-x-5-5-x-x-5-5-x-x-9-9-x-x-9-9-x-x-7-7-x-x-7-7-x-x-7-7-x-x-7-7-|
b--x-x-5-5-x-x-5-5-x-x-9-9-x-x-9-9-x-x-7-7-x-x-7-7-x-x-7-7-x-x-7-7-|
E--x-x-3-3-x-x-3-3-x-x-7-7-x-x-7-7-x-x-5-5-x-x-5-5-x-x-5-5-x-x-5-5-|


e--8-----5-----8-----5-----x-x-8-8-x-x-8-8-x-x-5-5-x-x-5-5-x-x-8-8-x-x-|
a--8-----5-----8-----5-----x-x-8-8-x-x-8-8-x-x-5-5-x-x-5-5-x-x-8-8-x-x-|
d--9-----5-----9-----5-----x-x-9-9-x-x-9-9-x-x-5-5-x-x-5-5-x-x-9-9-x-x-|
g--10----7-----10----7-----x-x-1010x-x-1010x-x-7-7-x-x-7-7-x-x-1010x-x-|
b--10----7-----10----7-----x-x-1010x-x-1010x-x-7-7-x-x-7-7-x-x-1010x-x-|
E--8-----5-----8-----5-----x-x-8-8-x-x-8-8-x-x-5-5-x-x-5-5-x-x-8-8-x-x-|


e--8-8-x-x-5-5-x-x-5-5-|
a--8-8-x-x-5-5-x-x-5-5-|
d--9-9-x-x-7-7-x-x-7-7-|
g--1010x-x-7-7-x-x-7-7-|
b--1010x-x-5-5-x-x-5-5-|
E--8-8-x-x-5-5-x-x-5-5-|


Chorus

e--x-x-7-7-x-x-7-7-x-x-5-5-x-x-5-5-x-x-5-5-x-x-5-5-x-x-7-7-x-x-7-7-x-x-|
a--x-x-7-7-x-x-7-7-x-x-5-5-x-x-5-5-x-x-5-5-x-x-5-5-x-x-7-7-x-x-7-7-x-x-|
d--x-x-9-9-x-x-9-9-x-x-7-7-x-x-7-7-x-x-6-6-x-x-6-6-x-x-8-8-x-x-8-8-x-x-|
g--x-x-9-9-x-x-9-9-x-x-7-7-x-x-7-7-x-x-7-7-x-x-7-7-x-x-9-9-x-x-9-9-x-x-|
b--x-x-7-7-x-x-7-7-x-x-5-5-x-x-5-5-x-x-7-7-x-x-7-7-x-x-9-9-x-x-9-9-x-x-|
E--x-x-7-7-x-x-7-7-x-x-5-5-x-x-5-5-x-x-5-5-x-x-5-5-x-x-7-7-x-x-7-7-x-x-|


e--8-8-x-x-8-8--x-x-3-3-x-x-3-3-x-x-7-7-x-x-7-7-x-x-7-7-x-x-7-7-|
a--8-8-x-x-8-8--x-x-3-3-x-x-3-3-x-x-7-7-x-x-7-7-x-x-7-7-x-x-7-7-|
d--9-9-x-x-9-9--x-x-4-4-x-x-4-4-x-x-9-9-x-x-9-9-x-x-8-8-x-x-8-8-| PLAY 2 TIMES
g--1010x-x-1010-x-x-5-5-x-x-5-5-x-x-9-9-x-x-9-9-x-x-9-9-x-x-9-9-|
b--1010x-x-1010-x-x-5-5-x-x-5-5-x-x-7-7-x-x-7-7-x-x-9-9-x-x-9-9-|
E--8-8-x-x-8-8--x-x-3-3-x-x-3-3-x-x-7-7-x-x-7-7-x-x-7-7-x-x-7-7-|

Verse

e--x-x-3-3-x-x-3-3-x-x-7-7-x-x-7-7-x-x-5-5-x-x-5-5-x-x-5-5-x-x-5-5-|
a--x-x-3-3-x-x-3-3-x-x-7-7-x-x-7-7-x-x-5-5-x-x-5-5-x-x-5-5-x-x-5-5-|
d--x-x-4-4-x-x-4-4-x-x-8-8-x-x-8-8-x-x-5-5-x-x-5-5-x-x-5-5-x-x-5-5-| PLAY 4 TIMES
g--x-x-5-5-x-x-5-5-x-x-9-9-x-x-9-9-x-x-7-7-x-x-7-7-x-x-7-7-x-x-7-7-|
b--x-x-5-5-x-x-5-5-x-x-9-9-x-x-9-9-x-x-7-7-x-x-7-7-x-x-7-7-x-x-7-7-|
E--x-x-3-3-x-x-3-3-x-x-7-7-x-x-7-7-x-x-5-5-x-x-5-5-x-x-5-5-x-x-5-5-|


e--8-----5-----8-----5-----x-x-8-8-x-x-8-8-x-x-5-5-x-x-5-5-x-x-8-8-x-x-|
a--8-----5-----8-----5-----x-x-8-8-x-x-8-8-x-x-5-5-x-x-5-5-x-x-8-8-x-x-|
d--9-----5-----9-----5-----x-x-9-9-x-x-9-9-x-x-5-5-x-x-5-5-x-x-9-9-x-x-|
g--10----7-----10----7-----x-x-1010x-x-1010x-x-7-7-x-x-7-7-x-x-1010x-x-|
b--10----7-----10----7-----x-x-1010x-x-1010x-x-7-7-x-x-7-7-x-x-1010x-x-|
E--8-----5-----8-----5-----x-x-8-8-x-x-8-8-x-x-5-5-x-x-5-5-x-x-8-8-x-x-|


e--8-8-x-x-5-5-x-x-5-5-|
a--8-8-x-x-5-5-x-x-5-5-|
d--9-9-x-x-7-7-x-x-7-7-|
g--1010x-x-7-7-x-x-7-7-|
b--1010x-x-5-5-x-x-5-5-|
E--8-8-x-x-5-5-x-x-5-5-|


Chorus

e--x-x-7-7-x-x-7-7-x-x-5-5-x-x-5-5-x-x-5-5-x-x-5-5-x-x-7-7-x-x-7-7-x-x-|
a--x-x-7-7-x-x-7-7-x-x-5-5-x-x-5-5-x-x-5-5-x-x-5-5-x-x-7-7-x-x-7-7-x-x-|
d--x-x-9-9-x-x-9-9-x-x-7-7-x-x-7-7-x-x-6-6-x-x-6-6-x-x-8-8-x-x-8-8-x-x-|
g--x-x-9-9-x-x-9-9-x-x-7-7-x-x-7-7-x-x-7-7-x-x-7-7-x-x-9-9-x-x-9-9-x-x-|
b--x-x-7-7-x-x-7-7-x-x-5-5-x-x-5-5-x-x-7-7-x-x-7-7-x-x-9-9-x-x-9-9-x-x-|
E--x-x-7-7-x-x-7-7-x-x-5-5-x-x-5-5-x-x-5-5-x-x-5-5-x-x-7-7-x-x-7-7-x-x-|


e--8-8-x-x-8-8--x-x-3-3-x-x-3-3-x-x-7-7-x-x-7-7-x-x-7-7-x-x-7-7-|
a--8-8-x-x-8-8--x-x-3-3-x-x-3-3-x-x-7-7-x-x-7-7-x-x-7-7-x-x-7-7-|
d--9-9-x-x-9-9--x-x-4-4-x-x-4-4-x-x-9-9-x-x-9-9-x-x-8-8-x-x-8-8-| PLAY 2 TIMES
g--1010x-x-1010-x-x-5-5-x-x-5-5-x-x-9-9-x-x-9-9-x-x-9-9-x-x-9-9-|
b--1010x-x-1010-x-x-5-5-x-x-5-5-x-x-7-7-x-x-7-7-x-x-9-9-x-x-9-9-|
E--8-8-x-x-8-8--x-x-3-3-x-x-3-3-x-x-7-7-x-x-7-7-x-x-7-7-x-x-7-7-|


Bridge

e--7--7--7--7--7--7--7--7--8--8--8--8--3--3--3--3--|
a--7--7--7--7--7--7--7--7--8--8--8--8--3--3--3--3--|
d--9--9--9--9--8--8--8--8--9--9--9--9--4--4--4--4--|  PLAY 3 TIMES
g--9--9--9--9--9--9--9--9--10-10-10-10-5--5--5--5--|
b--7--7--7--7--9--9--9--9--10-10-10-10-5--5--5--5--|
E--7--7--7--7--7--7--7--7--8--8--8--8--3--3--3--3--|

e--8--8--8--8--8--8--8--8--3--3--3--3---------|
a--8--8--8--8--8--8--8--8--3--3--3--3---------|
d--9--9--9--9--9--9--9--9--4--4--4--4---------|
g--10-10-10-10-10-10-10-10-5--5--5--5---------|
b--10-10-10-10-10-10-10-10-5--5--5--5---------|
E--8--8--8--8--8--8--8--8--3--3--3--3--3~~-2~~|


SOLO


Chorus(2x)

e--x-x-7-7-x-x-7-7-x-x-5-5-x-x-5-5-x-x-5-5-x-x-5-5-x-x-7-7-x-x-7-7-x-x-|
a--x-x-7-7-x-x-7-7-x-x-5-5-x-x-5-5-x-x-5-5-x-x-5-5-x-x-7-7-x-x-7-7-x-x-|
d--x-x-9-9-x-x-9-9-x-x-7-7-x-x-7-7-x-x-6-6-x-x-6-6-x-x-8-8-x-x-8-8-x-x-|
g--x-x-9-9-x-x-9-9-x-x-7-7-x-x-7-7-x-x-7-7-x-x-7-7-x-x-9-9-x-x-9-9-x-x-|
b--x-x-7-7-x-x-7-7-x-x-5-5-x-x-5-5-x-x-7-7-x-x-7-7-x-x-9-9-x-x-9-9-x-x-|
E--x-x-7-7-x-x-7-7-x-x-5-5-x-x-5-5-x-x-5-5-x-x-5-5-x-x-7-7-x-x-7-7-x-x-|


e--8-8-x-x-8-8--x-x-3-3-x-x-3-3-x-x-7-7-x-x-7-7-x-x-7-7-x-x-7-7-|
a--8-8-x-x-8-8--x-x-3-3-x-x-3-3-x-x-7-7-x-x-7-7-x-x-7-7-x-x-7-7-|
d--9-9-x-x-9-9--x-x-4-4-x-x-4-4-x-x-9-9-x-x-9-9-x-x-8-8-x-x-8-8-| PLAY 4 TIMES
g--1010x-x-1010-x-x-5-5-x-x-5-5-x-x-9-9-x-x-9-9-x-x-9-9-x-x-9-9-|
b--1010x-x-1010-x-x-5-5-x-x-5-5-x-x-7-7-x-x-7-7-x-x-9-9-x-x-9-9-|
E--8-8-x-x-8-8--x-x-3-3-x-x-3-3-x-x-7-7-x-x-7-7-x-x-7-7-x-x-7-7-|
            
Submit corrections

comments powered by Disqus
↑ Back to top | Fiction Plane Tabs for Two Sisters. Lyrics for acoustic guitar and electric guitar. Tablatures and chords are parodies/interpretations of the original songs. You may use it for private study, scholarship, research or language learning purposes only