» » »

Fiction Plane, It's A Lie Bass tabs (ver.1)

Artists:  A B C D E F G H I J K L M N O P Q R S T U V W X Y Z # 

It's A Lie Bass tabs (ver.1)

Fiction Plane Tabs
Rating:
0/5 (0 votes)
Hard to play? Try these video lessons and learn fast.
                -------------------------------------------------------------------------------
			     SONG NAME - Band Name
-------------------------------------------------------------------------------



Tuning: Standard
  


It's a lie           \    no bass
if I lie right here  /  

 verse:

  girl this was...      you know it's ...
G|------------------------------------------------|
D|------------------------------------------------|
A|------------------------------------------------|
E|5-5-5-5-5-5-----------7-7-7-7-7-7-7-------------|

 
  you say you want...    well my love ...
G|------------------------------------------------|
D|------------------------------------------------|
A|------------------------7-7-7-7-7-7-------------|
E|9-9-9-9-9-9-------------------------------------|


  I've got a list...    I want to do before
G|------------------------------------------------|
D|------------------------------------------------|
A|------------------------------------------------|
E|5-5-5-5-5-5-----------7-7-7-7-7-7---------------|

  I think of ...   else's sorrow 
G|------------------------------------------------|
D|------------------------------------------------|
A|-------------------7-7-7-7-7--------------------|
E|9-9-9-9-9-9-------------------------------------|

Verse 2 THE SAME HAS ABOVE

  Chorus:

  wish I could...   I'm a better guy
G|-------------------------------------------------|
D|-------------------------------------------------|
A|------------------9-9-9-9-9-9--------------------|
E|5-5-5-5-5-5--------------------------------------|


  that love is...   and only real man cry
G|-------------------------------------------------|
D|-------------------------------------------------|
A|-------------------------------------------------|
E|7-7-7-7-7-7--------5-5-5-5-5-5-------------------|


  but all I want..   is jump your bones
G|-------------------------------------------------|
D|-------------------------------------------------|
A|-------------------9-9-9-9-9-9-------------------|
E|5-5-5-5-5-5--------------------------------------|


  and slam dance ...   of your moans
G|-------------------------------------------------|
D|-------------------------------------------------|
A|--------------------7-7-7-7-7-7------------------|
E|7-7-7-7-7-7--------------------------------------|


  it's a lie                 if I lie right here
G|--------------------------------------------------------|
D|--------------------------------------------------------|
A|----------------9-9-9-9-9-9----------7-7-7--------------|
E|5-5-5-5-5-5--------------------7-7-7--------5-5-5-5-5---|



ohoh....
G|-------------------------------------------------------------|
D|-------------------------------------------------------------|
A|------------------9-9-9-9-9-9--------------------------------|
E|5-5-5-5-5-5--------------------7-7-7-7-7-7-------5-5-5-5-5-5-|

  AND CHORUS FOR THE LAST TIME....END!!!






| /  slide up
| \  slide down
| h  hammer-on
| p  pull-off
| ~  vibrato
| +  harmonic
| x  Mute note
===============================================================================
            

comments powered by Disqus
↑ Back to top | Fiction Plane Bass for It's A Lie. Lyrics for acoustic guitar and electric guitar. Tablatures and chords are parodies/interpretations of the original songs. You may use it for private study, scholarship, research or language learning purposes only