>
 >
Waltz Of The Robins

Waltz Of The Robins Guitar Tabs

Fernando Sor - Waltz Of The Robins chords, tabs, tablatures, lyrics

Guitar lessons | Add/correct | Request | Top 50 tabs Artists:  A B C D E F G H I J K L M N O P Q R S T U V W X Y Z 0-9

Waltz Of The Robins Guitar Tabs – Fernando Sor

CD, Sheet music, Poster

Do you like Waltz Of The Robins? Share with your friends now
Tabs
E-|---Song:-Waltz-of-the-Robins--------------------|
A-|---Composer:-Fernando-Sor-----------------------|
D-|---Transcription-by:Christian Liang-------------|
E-|---Enjoy!---------------------------------------|


Waltz of the Robins by Fernando Sor(1778-1839)

3/4 Time Signature

[1]
E|--------------------|--------------------|
B|--------------1-----|--1--p--0-----3-----|
G|--------0-----------|--------------------|
D|--2-----------------|--0===========3-----|
A|--3================-|--------------------|
E|--------------------|--------------------|
 |  |  |  |  |  |  |  |  |  |  |  |  |  |  |  
R   i     m     a        m           m        
    p                    p           p        

L   2           1        1           4        
    3                                3        

[3]
E|--------------0-----|--------------------|
B|--1-----------------|--3================-|
G|--------0-----------|--------0-----------|
D|--2================-|--------------3-----|
A|--------------3-----|--2-----------------|
E|--------------------|--------------------|
 |  |  |  |  |  |  |  |  |  |  |  |  |  |  |
R   m     i     a        m     i     p
    p           p        p

L   1           3        4           3
    2                    2

[5]
E|--------0-----3-----|--------------1-----|
B|--1-----------------|--------3-----------|
G|--------------------|--2-----------------|
D|--2================-|--3================-|
A|--------------------|--------------------|
E|--------------------|--------------------|
 |  |  |  |  |  |  |  |  |  |  |  |  |  |  |  
R   1           4        2     4     1      
    2                    3                         

L   m     a     a        i     m     a        
    p                    p                    

[7]
E|--------------0-----|--------------------|
B|--0-----1-----------|--3--------0--------|
G|--0-----------------|--0-----------0-----|
D|-----3--2-----------|--------------------|
A|--------------3-----|--------------------|
E|--------------------|--------3==========-|
 |  |  |  |  |  |  |  |  |  |  |  |  |  |  |
R      3  1     3        4     3
          2

L   m  p  m     a        m     p  m  i
       i     p     p        i

[9]
E|--------------------|--------------------|
B|--------------1-----|--1--p--0-----3-----|
G|--0-----------------|-----------0--------|
D|--------2-----------|--0-----------3-----|
A|--3-----------------|--------------------|
E|--------------------|--------------------|
 |  |  |  |  |  |  |  |  |  |  |  |  |  |  |  
R   3     2     1        1           4        
                                     3        

L   m     i     a        m        i  m        
    p                    p           p        


[11]
E|--------------0-----|--------------------|
B|--3p-1-----1--------|--3==========-4-----|
G|--------0-----------|--------0==========-|
D|--2-----------------|--------------------|
A|--------------3-----|--2-----------------|
E|--------------------|--------------------|
 |  |  |  |  |  |  |  |  |  |  |  |  |  |  |
R   4  1     1  3        3           4
    2                    1

L   m     i  m  a        m     i     m
    p           p        p


[13]
E|--0-----------------|--------------0-----|
B|--------0-----1-----|--------3-----------|
G|--------------------|--2-----------------|
D|--------0-----2-----|--3==========-2-----|
A|--3================-|--------------------|
E|--------------------|--------------------|
 |  |  |  |  |  |  |  |  |  |  |  |  |  |  |
R   3           1        2     4     2       
                2        3                 
                        
L   a     m     m        i     m     a        
    p     p     p        p           p        


[15]
E|--1-----------------|--------------------|
B|--------------0-----|--1================-|
G|--------2-----0-----|-----------0--------|
D|--0================-|--------2-----------|
A|--------------------|--3-----------3-----|
E|--------------------|--------------------|
 |  |  |  |  |  |  |  |  |  |  |  |  |  |  |
R   1     2              1     2     3
                         3

L   a     i     m        a     i  m  p
    p           i        p


[17]
E|--------------------|--------0==========-|
B|--3-----------------|--------------------|
G|--------0-----0-----|--0-----------------|
D|--------------------|--------------------|
A|--2================-|--3--------2--0-----|
E|--------------------|-----------------3--|
 |  |  |  |  |  |  |  |  |  |  |  |  |  |  | 
R   4                    3        2     3     
    2                                                              

L   m     i     i        i     a  p  p  p      
    p                    p                    


[19]
E|--0-----------------|--------------------|
B|--------3-----------|--1-----0--------0--|
G|--------------2-----|--------------0-----|
D|--------------------|-----------0--------|
A|--------------------|--------------------|
E|--2================-|--3================-|
 |  |  |  |  |  |  |  |  |  |  |  |  |  |  |
R   2     4     3        1
                         3

L   a     m     i        m     m  p  i  m
    p                    p

[21]
E|--------------3-----|--------2p-0--------|
B|--3-----------------|--------------1-----|
G|--------0-----------|-----------------2--|
D|--------------------|--------------------|
A|--2================-|--3================-|
E|--------------------|--------------------|
 |  |  |  |  |  |  |  |  |  |  |  |  |  |  |  
R   3           4        3     2     1  2           
    1
L   m     i     a        p     a     m  i     
    p                                         


[23]
E|--------------------|--------------------|
B|-----0--3p-1--------|--------------------|
G|--0-----------2-----|--0================-|
D|--0=============-4--|--------------3-----|
A|--------------------|--------------------|
E|--------------------|--------3==========-|
 |  |  |  |  |  |  |  |  |  |  |  |  |  |  |
R         4  1  2  4           3     4

L   i  m  m     i  p     i     p     i
    p

[25]
E|--------------------|--------------------|
B|--------------1-----|--1-p0--------3-----|
G|--------0-----------|--------0-----------|
D|--2-----------------|--0==========-3-----|
A|--3================-|--------------------|
E|--------------------|--------------------|
 |  |  |  |  |  |  |  |  |  |  |  |  |  |  |  
R   2           1        1           4        
    3                                3        
L   i     m     a        m     i     m        
    p                    p           p        


[27]
E|--------------0-----|--------------------|
B|--3-p1--------------|--3================-|
G|--------0-----------|--------0-----------|
D|--2================-|--------------3-----|
A|--------------3-----|--2-----------------|
E|--------------------|--------------------|
 |  |  |  |  |  |  |  |  |  |  |  |  |  |  |
R   4  1        3        4           3
    2                    2

L   m           a        a     m     i
    p           p        p

[29]
E|--------0-----3-----|--------1p-0--------|
B|--1-----------------|--------------3--1--|
G|--------------------|--2-----------------|
D|--2================-|--3================-|
A|--------------------|--------------------|
E|--------------------|--------------------|
 |  |  |  |  |  |  |  |  |  |  |  |  |  |  | 
R   1           4        2     2     4  2    
    2                    3                    
L   m     a     a        i     a     m  i     
    p                    p                    


[31]
E|--------------0-----|--------------------|
B|--0-----1-----------|--3--------0--------|
G|--0-----------------|--------------0-----|
D|-----3--2-----------|--------------------|
A|--------------3-----|--2-----------------|
E|--------------------|--------3-----------|
 |  |  |  |  |  |  |  |  |  |  |  |  |  |  |
R      3  1     3        4     3
          2              2

L   m  p  m     a        m     p  m  i
    i     p     p        p


[33]
E|--------------------|--------------------|
B|--------------1-----|--1--p--0-----0--3--|
G|--0-----------------|-----------0--------|
D|--------2-----------|--0==========-3-----|
A|--3================-|--------------------|
E|--------------------|--------------------|
 |  |  |  |  |  |  |  |  |  |  |  |  |  |  | 
R   3     2     1        1           3  4     
                                              
L   m     i     a        m        i  m  m     
    p                    p           p        

[35]
E|-----------------0--|--------------------|
B|--3--p--1-----1-----|--3==========-4-----|
G|-----------0--------|--------0==========-|
D|--2================-|--------------------|
A|--------------3-----|--2-----------------|
E|--------------------|--------------------|
 |  |  |  |  |  |  |  |  |  |  |  |  |  |  |
R   4     1     1        3           4
    2           3        1

L   m        i  m  a     m     i     m 
    p           p        p


[37]
E|--0-----------------|-----------------0--|
B|--------0-----1-----|-----0--1--2--3-----|
G|--------------------|--2-----------------|
D|--------0-----2-----|--3================-|
A|--3================-|--------------------|
E|--------------------|--------------------|
 |  |  |  |  |  |  |  |  |  |  |  |  |  |  | 
R   3           1        2     1  2  3        
                2        3                                         
L   a     m     m        i  m  i  m  i  a     
    p     i     i        p                    


[39]
E|--3p-1--------------|--------------------|
B|--------------0-----|--1================-|
G|--------2-----0-----|-----0-----0--------|
D|--0================-|--------2-----------|
A|--------------------|--3-----------3-----|
E|--------------------|--------------------|
 |  |  |  |  |  |  |  |  |  |  |  |  |  |  |
R   4  1  2              1     2     3
                         3

L   a     i     m        a  m  i  m  p
    p           i        p





Comments


Popular Fernando Sor tabs & chords
Allegro In C Tabs
Estudio 5 In B Minor Tabs
Estudio 6 Tabs
Moderato In A Minor Tabs
Moderato In C Tabs
Sor Op6 No2 Tabs
Study In C Tabs
Study In G Tabs
Three Easy Pieces Tabs
Waltz Tabs


Song lyrics



↑ Back to top | Tablatures and chords are parodies/interpretations of the original songs. You may use it for private study, scholarship, research or language learning purposes only
© 2014 AZChords.com Contact us | Privacy policy | DMCA | Add/correct tabs | Request tabs | Top 50 tabs