» » »

Study In G Tabs (ver.1)

Artists:  A B C D E F G H I J K L M N O P Q R S T U V W X Y Z # 

Study In G Tabs (ver.1)

Fernando Sor
Rating:
0/5 (0 votes)

Tabs too difficult? Try these video lessons and learn fast.
                FERNANDO SOR: STUDY IN G,  Op, 31, No.5


This is my first submission.  It's a relatively easy piece with
straightforward timing.  Let me know if this was of use to anyone.  I've
gotten so many nice pieces from the net that I thought I owed it one.
I wrote it on Word for Windows using the Courier font, size 10 and saved it
as an ASCII file.  I hope that it works.  Someone let me know if I'm doing
this right or if there's an easier way.
Enjoy!


PART I

--------|---|---|---|---|-|---|---|---|---|-|---|---|---|---|-|---|---|---|---
|

E-----|-3---3---3-2-0-2-|-3---------------|-----------------|-----------------
|

B---3-|-0---0---1-------|-0-------3---0---|-1---1---1-0-1-3-|-0-----------3---
|

G-----|-0---0---2-------|-0-----------0---|-2---2---2-------|-0---------------
|

D-----|-------------0---|-----------------|-----0-------0---|-----0-----------
|

A-----|-----------------|-----------------|-----------------|-----------------
|

E-----|-----------------|-----------------|---------2-------|-3-------3-------
|


	---|---|---|---|---|-|---|---|---|---|-|---|---|---|---|-|---|---|---|---|
	E -3---3---3-2-0---|-------------2---|-----0-----------|-----------------|
	B -0-------0-----3-|-2-------3-------|-0-------3-2-0-2-|-3-----------3---|
	G -0---------------|-2---0-----------|-0-------0-------|-----------------|
	D ---------2-------|---------4---0---|-----------------|-4---0---0-------|
	A -----------------|-----------------|---------0-------|-5---------------|
	E -----------------|-----------------|-----------------|-----------------|


	---|---|---|---|---|-|---|---|---|---|-|---|---|---|---|-|---|---|---|---|
	E -0---0---0-2-3-5-|-------------3---|-2---2---3---7---|-5---------------|
	B -----3---1-------|-3-------3---0---|-1-------0---8---|-7---------------|
	G -----1---2-------|-----5---4---0---|-2-------0-------|-----7-------7---|
	D -----------------|-----4---5-------|-----0===========|=====----0-------|
	A -----------------|-----------------|-----------------|-----------------|
	E -----------------|-----------------|-----------------|-----------------|


	---|---|---|---|---|-|---|---|---|---|-|---|---|---|---|-|---|---|---|---|
	E -7---7---3-------|-----------------|-0---0---3-2-0-2-|-3---------------|
	B -----8---5---5---|-3-----------3---|-2-------1-------|-0---------------|
	G -0-----------5---|-4-------4---4---|-3-------2-------|-0---------------|
	D -----------------|---------5-------|-------------0---|-----0-----------|
	A -----------------|-----------------|-----------------|-----------------|
	E -----------------|-----------------|-----------------|---------3-------|

PART II


---------|---|---|---|---|-|---|---|---|---|-|---|---|---|---|-|---|---|---|--
-|

E-----|-3---3---2---2---|-0---------------|-3---3---2-0-2-3-|-0-----------0---
|

B---0-|-----0---1---1---|---------0---0---|-----0---1---1---|-----0---0-------
|

G-----|---------2---2---|-----0---0-------|---------2---2---|-----0---0-------
|

D-----|-----------------|-----------------|-----------------|-----------------
|

A-----|-----------------|-----------------|-----------------|-----------------
|

E-----|-0---------------|-0---------------|-0---------------|-0---------------
|


	---|---|---|---|---|-|---|---|---|---|-|---|---|---|---|-|---|---|---|---|
	E -2---2---3---3---|-5-------2---2---|-3---3---0---0---|-----------------|
	B -----0-------0---|-----0-------0---|-----0-----------|-4-----------0---|
	G -----------------|-----------------|-------------3---|-4---4-----------|
	D -1-------2-------|-4-------1-------|-2---------------|-----------------|
	A -----------------|-----------------|---------3-------|-2-------2-------|
	E -----------------|-----------------|-----------------|-----------------|


	---|---|---|---|---|-|---|---|---|---|-|---|---|---|---|-|---|---|---|---|
	E -2---------------|-3-----2-0---0---|-2---------------|-3-----2-0---0---|
	B -----0---0---0---|-----0---0---0---|-----0---0---0---|-----0-----------|
	G -----2---2---2---|-----0---0---0---|-----2---2---2---|-----0-----------|
	D -1---------------|-2---------------|-1---------------|-2---------------|
	A -----------------|-----------------|-----------------|-----------------|
	E -----------------|-----------------|-----------------|-----------------|

	---|---|---|---|---|-|---|---|---|---|-|---|---|---|---|-|---|---|---|---|
	E -5---5---3---3---|-3-------2---0---|-----2-------2---|-0---------------|
	B -----5---3---3---|-1---------------|-4-------4-------|-------------3---|
	G -----5---4---4---|-2---------------|-2-------2-------|-0---------------|
	D -----------------|-----------------|-----------------|-----2-----------|
	A -----------------|-0---------------|-2-------2-------|-----------------|
	E -------------0---|-----------------|-----------------|---------0-------|


REPLAY PART I, THEN STOP

Again, let me know if you got any use out of this.  It took a while to do and
I'll continue to submit if the work is of use.  If it's not, I'll spend the
time practicing.
            
Tabs too difficult? Try these video lessons and learn fast.


comments powered by Disqus
↑ Back to top | Tablatures and chords are parodies/interpretations of the original songs. You may use it for private study, scholarship, research or language learning purposes only