>
 >
Opus 6 No 11 Etude 17

Opus 6 No 11 Etude 17 Guitar Tabs

Fernando Sor - Opus 6 No 11 Etude 17 chords, tabs, tablatures, lyrics

Guitar lessons | Add/correct | Request | Top 50 tabs Artists:  A B C D E F G H I J K L M N O P Q R S T U V W X Y Z 0-9

Opus 6 No 11 Etude 17 Guitar Tabs – Fernando Sor

CD, Sheet music, Poster

Do you like Opus 6 No 11 Etude 17? Share with your friends now
Tabs
E-|---Song:-Etude-17-(Opus-6-No-11)----------------|
A-|---Composer:-Fernando-Sor-----------------------|
D-|---Transcription-by:Christian Liang-------------|
E-|---Enjoy!---------------------------------------|


Etude 17 (Opus 6 No. 11) - Fernando Sor (1778-1839)

Opus 6 No 11 also known as study 17. Segovia categorized 20 fernando sor's songs as 
or study. This Study in E is full of arpeggios. You will get to play the arpeggio in the 
key and conclude in the Minor in part B.
Once you have learnt the basic pattern, the right hand is taken care of. Devote some 
to familiarize yourself to the numerous left hand chord transitions.
Towards the latter part of opus 6 no 11, there are some barre chords that require a 
stretched hand.
The bigger the hand, the better. Finally, this song tests your endurance as you will be 
plucking (right hand) and changing chords after chords (left hand).
There are thankfully 2 pauses during the song to give your hand a break.

Technique and Tips
Standard Tuning EADGBE. 87 Bars. No repeat. 3/4 Time Signature.
Hold Bass Note as long as a full measure. The right hand plucking has some variations 
you can go auto pilot once you have memorized the patterns.
Pay special attention to the left hand which will be doing most of the work. If you have 
with a particular chord, look back 1 measure
and if possible alter the fingerings. This allows another approach for your left hand to 
to that awkward chord.

Part 1: E Minor
Bar[12] Hinge Barre Chord. Flatten or pivot your index to barre string below.
Bar[14] Suspending the bass note with this Barre Chord while doing the pinky stretch is 
difficult.
Bar[22] Double Barre. This Barre Chord requires pinky to Barre the treble 3 strings also.

Part2: E Major
Bar[60],[68] With your third finger on C#, this is quite a stretch. If you want you can 
with the fourth finger but they will be a break in the preivous melody

------
Legend
------
== Hold/Suspend Note
II3 Barre chord bottom 3 strings


Etude 17 (Opus 6 No. 11) - Fernando Sor (1778-1839)


[1]
e|-------------0-----0-----|-0======================-|-------------0-----3-----|
G|-------0-----------------|-------0-----0-----0-----|-------0-----------------|
B|-----0-----0-----0-----0-|-----0-----0-----0-----0-|-----0-----0-----0-----0-|
D|---2-----2-----2-----2---|---2-----2-----2-----2---|---2-----2-----2-----2---|
A|-------------------------|-------------------------|-------------------------|
E|-0======================-|-0======================-|-0======================-|
 | | | | | | | | | | | | | | | | | | | | | | | | | | | | | | | | | | | | | | | |
R  p i m a i m a i m a i m   a i m a i m a i m a i m   p i m a i m a i m a i m
                             p
L    2     2     2     2       2     2     2     2       2     2     2   4

[4]
e|-3==========-2==========-|-------2-----2-----2-----|-2===========------------|
B|-------1-----------1-----|-------------------------|-------0-----0-----------|
G|-----2-----2-----2-----2-|-----2-----2-----2-----2-|-----2-----2-----2-----2-|
D|---2-----2-----2-----2---|---2-----2-----2-----2---|---1-----1-----1-----1---|
A|-------------------------|-------------------------|-------------------3====-|
E|-0======================-|-0======================-|-0======================-|
 | | | | | | | | | | | | | | | | | | | | | | | | | | | | | | | | | | | | | | | |
R  a i m a i m a i m a i m   p i m a i m a i m a i m   a i m a i m a i m p i m
   p                                                   p
L  4 2 3 1 2 3 4 2 3 1 2 3     2 3 4 2 3 4 2 3 4 2 3   4 1 3   1 3   1 3 4 1 3

[7]
e|-------2-----3-----2-----|-2==========-0==========-|-------3-----3-----3-----|
G|-------------------------|-------0-----------0-----|-----0-----0-----0-----2-|
B|-----2-----2-----2-----2-|-----2-----2-----0-----0-|-------------------------|
D|---1-----1-----1-----1---|---2-----2-----2-----2---|---2-----2-----2-----2---|
A|-2======================-|-------------------------|-------------------------|
E|-------------------------|-0======================-|-0======================-|
 | | | | | | | | | | | | | | | | | | | | | | | | | | | | | | | | | | | | | | | |
R  p i m a i m a i m a i m   a i m a i m a i m a i m   p i m a i m a i m a i m
                             p
L  2 1 3 4 1 3 4 1 3 4 1 3   4 2 3   2 3   2     2       2   4 2   4 2   4 2 3

[10]                                                         III2.............
e|-3-----2-----2-----------|-------5-----5-----5-----|-5-----3-----3-----------|
G|-----3-----3-----3-----3-|-----3-----3-----3-----3-|-----3-----3-----3-----3-|
B|---2-----2-----2-----2---|---5-----5-----5-----5---|---4-----4-----4-----4---|
D|-0================-0====-|-4======================-|-5================-5====-|
A|-------------------------|-------------------------|-------------------------|
E|-------------------------|-------------------------|-------------------------|
 | | | | | | | | | | | | | | | | | | | | | | | | | | | | | | | | | | | | | | | |
R  a i m a i m a i m p i m   p i m a i m a i m a i m   a i m a i m a i m p i m
   p                                                   p
L  4 1 3 2 1 3 1 2 3   1 3   2 3 1 4 3 1 4 3 1 4 3 1   4 2 1 1 2 1 1 2 1 3 2 1
                                                       3

[13]III....................  III5...................   III5....................
e|-------7-----7-----7-----|-7-----5-----5-----------|-------3-----3-----3-----|
G|-----3-----3-----3-----3-|-----5-----5-----5-----5-|-----5-----5-----5-----5-|
B|---4-----4-----4-----4---|---5-----5-----5-----5---|---3-----3-----3-----3---|
D|-------------------------|-------------------------|-------------------------|
A|-------------------------|-3================-3====-|-4======================-|
E|-3======================-|-------------------------|-------------------------|
 | | | | | | | | | | | | | | | | | | | | | | | | | | | | | | | | | | | | | | | |
R  p i m a i m a i m a i m   a i m a i m a i m p i m   p i m a i m a i m a i m
                             p
L  1 2 1 4 2 1 4 2 1 4 2 1   4 2 3 4 2 3 4 2 3 1 2 3   2 1 4 1 1 4 1 1 4 1 1 4
                             1

[16]                         II5.....................
e|-3-----2-----2-----------|-------2-----2-----2-----|-2-----3-----3-----------|
G|-----3-----3-----3-----3-|-----3-----3-----3-----3-|-----3-----3-----3-----3-|
B|---2-----2-----2-----2---|---2-----2-----2-----2---|---0-----0-----0-----0---|
D|-0================-0====-|-------------------------|-------------------------|
A|-------------------------|-3======================-|-2================-2====-|
E|-------------------------|-------------------------|-------------------------|
 | | | | | | | | | | | | | | | | | | | | | | | | | | | | | | | | | | | | | | | |
R  a i m a i m a i m p i m   p i m a i m a i m a i m   a i m a i m a i m p i m
   p                                                   p
L  4 1 3 2 1 3 2 1 3   1 3   2 1 3 1 1 3 1 1 3 1 1 3   2   3 4   3 4   3 1   3
                                                       1

[19]
e|-------5-----5-----5-----|-6-----7-----7-----------|-------3-----3-----3-----|
G|-------------------------|-------------------------|-----0-----0-----0-----0-|
B|-----5-----5-----5-----5-|-----4-----4-----4-----0-|---0-----0-----0-----0---|
D|---0-----0-----0-----0---|---0-----0-----0-----0---|-------------------2====-|
A|-------------------------|-------------------------|-------------------------|
E|-2======================-|-3================-3====-|-0======================-|
 | | | | | | | | | | | | | | | | | | | | | | | | | | | | | | | | | | | | | | | |
R  p i m a i m a i m a i m   a i m a i m a i m p i m   p i m a i m a i m a i m
                             p                                           p
L  1   3 4   3 4   3 4   3   4   2 4   2 4   2 1             4     4     4
                             1                                           2

[22]III5....... V3.........
e|-------5-----------8-----|-------2-----2-----2-----|-2-----3-----3-----------|
G|-----5-----5-----5-----5-|-----1-----1-----1-----1-|-----1-----0-----0-----0-|
B|---5-----5-----5-----5---|---2-----2-----2-----2---|---2-----0-----0-----0---|
D|-------------------------|-0================-1====-|-2================-2====-|
A|-3==========-0==========-|-------------------------|-------------------------|
E|-------------------------|-------------------------|-------------------------|
 | | | | | | | | | | | | | | | | | | | | | | | | | | | | | | | | | | | | | | | |
R  p i m a i m p i m a i m   p i m a i m a i m a i m   a i m a i m a i m p i m
                                               p       p
L  1 4 4 4 4 4   1 1 4 1 1     3 2 4 3 2 4 3 2 4 3 2   4 3 1 4     4     2
                                               1       2

[25]II5...........................                     V3......... I3.........
e|-------1-----1-----1-----|-1-----0-----------5-----|-5-----3-----3-----2-----|
G|-----3-----3-----3-----3-|-----3-----1-----5-----5-|-----3-----3-----1-----1-|
B|---1-----1-----1-----1---|---2-----2-----5-----5---|---4-----4-----2-----2---|
D|-------------------------|-------------------------|-0======================-|
A|-2======================-|-3==========-0==========-|-------------------------|
E|-------------------------|-------------------------|-------------------------|
 | | | | | | | | | | | | | | | | | | | | | | | | | | | | | | | | | | | | | | | |
R  p i m a i m a i m a i m   a i m a i m p i m a i m   a i m a i m a i m a i m
                             p                         p
L  2 1 4 1 1 4 1 1 4 1 1 4   1 2 4   2 1   2 3 4 2 3   4 2 1 1 2 1 4 2 1 3 2 1
                             3

[28]                         III.....................  II5......................
e|-3======================-|-------------7-----5-----|-5==========-4==========-|
G|-----0-3---0-0---0-3---0-|-------3-----------------|-------3-----------3-----|
B|---0-----0-----0-----0---|-------------------------|-----4-----4-----4-----4-|
D|-------0=====------0====-|-------------------------|---2-----2-----2-----2---|
A|-------------2=====------|-------------------------|-------------------------|
E|-3======================-|-3======================-|-0======================-|
 | | | | | | | | | | | | | | | | | | | | | | | | | | | | | | | | | | | | | | | |
R  a i m a i m a i m a i m   p     i     m     a       a i m a p i a p i m i m
   p     p     p     p                                 p
L  4     3     1     3       1     1     4     4       4 1 3 2 1 3 4 1 3 2 1 3
   2

[31]                         V4................................................
e|-------0-----2-----4-----|-7==========-5==========-|-------------5-----------|
G|-----3-----3-----3-----3-|-------5-----------5-----|-------5-----------8-----|
B|---4-----4-----4-----4---|-----7-----7-----5-----5-|-----5-----5-----5-----5-|
D|-------------------------|---6-----6-----7-----7---|---7-----7-----7-----7---|
A|-------------------------|-0======================-|-0================-6====-|
E|-0======================-|-------------------------|-------------------------|
 | | | | | | | | | | | | | | | | | | | | | | | | | | | | | | | | | | | | | | | |
R  p i m a i m a i m a i m   a i m a i m a i m a i m   p i m a i m a i m a i m
                             p                                           p
L    3 2   3 2 1 3 2 4 3 2   4 2 3 1 2 3 1 3 1 1 3 1     3 1 1 3 1 1 3 1 4 3 1
                                                                         2
[34]                                                   III.....................
e|-3-----2-----2-----------|-------2-----0-----2-----|-5==========-3==========-|
G|-----1-----1-----1-----1-|-----1-----1-----1-----1-|-------3-----------3-----|
B|---2-----2-----2-----2---|---2-----2-----2-----2---|-----5-----5-----4-----4-|
D|-0================-0====-|-0======================-|---4-----4-----5-----5---|
A|-------------------------|-------------------------|-------------------------|
E|-------------------------|-------------------------|-3======================-|
 | | | | | | | | | | | | | | | | | | | | | | | | | | | | | | | | | | | | | | | |
R  a i m a i m a i m p i m   p i m a i m a i m a i m   a i m a i m a i m a i m
   p                                                   p
L  4 2 1 3 2 1 3 2 1   2 1     3 2 4 3 2   3 2 4 3 2   4 2 3 1 2 3 1 3 2 1 3 2

[37]III....................
e|-------3-----3-----3-----|-3==========-2==========-|-------2-----2-----2-----|
G|-----3-----3-----3-----3-|-------0-----------0-----|-------------------------|
B|---4-----4-----4-----4---|-----2-----2-----2-----2-|-----2-----2-----2-----2-|
D|-------------------------|---1-----1-----1-----1---|---1-----1-----1-----1---|
A|-------------------------|-2======================-|-2======================-|
E|-3======================-|-------------------------|-------------------------|
 | | | | | | | | | | | | | | | | | | | | | | | | | | | | | | | | | | | | | | | |
R  p i m a i m a i m a i m   a i m a i m a i m a i m   p i m a i m a i m a i m
                             p
L  1 3 1 1 3 1 1 3 1 1 3 1   4 1 3   1 3 4 1 3   1 3   2 1 3 4 1 3 4 1 3 4 1 3
                             2
[40]
e|-2==========-0==========-|-------3-----3-----3-----|-3==========-2==========-|
G|-------0-----------0-----|-------------------------|-------0-----------0-----|
B|-----0-----0-----0-----0-|-----0-----0-----0-----0-|-----2-----2-----2-----2-|
D|---2-----2-----2-----2---|---2-----2-----2-----2---|---1-----1-----1-----1---|
A|-------------------------|-------------------------|-2======================-|
E|-0======================-|-0======================-|-------------------------|
 | | | | | | | | | | | | | | | | | | | | | | | | | | | | | | | | | | | | | | | |
R  a i m a i m a i m a i m   p i m a i m a i m a i m   a i m a i m a i m a i m
   p                                                   p
L  4 1     1     1     2       1   4 1   4 1   4 1     4 1 3   1 3   1 3   1 3
                                                       2
[43]
e|-------2-----2-----2-----|-2==========-0==========-|-------0-----0-----0-----|
G|-------------------------|-------0-----------0-----|-----0-----0-----0-----0-|
B|-----2-----2-----2-----2-|-----0-----0-----0-----0-|---0-----0-----0-----0---|
D|---1-----1-----1-----1---|---2-----2-----2-----2---|-------------------------|
A|-0======================-|-------------------------|-------------------------|
E|-------------------------|-0======================-|-0======================-|
 | | | | | | | | | | | | | | | | | | | | | | | | | | | | | | | | | | | | | | | |
R  p i m a i m a i m a i m   a i m a i m a i m a i m   p i m a i m a i m a i m
                             p
L    1 3 4 1 3 4 1 3 4 1 3   4 2     2     2     2

[46]                                                   II5.....................
e|-3==========-2==========-|-------2-----2-----2-----|-5==========-4==========-|
G|-------1-----------1-----|-------------------------|-------3-----------3-----|
B|-----2-----2-----2-----2-|-----2-----2-----2-----2-|-----4-----4-----4-----4-|
D|---2-----2-----2-----2---|---2-----2-----2-----2---|---2-----2-----2-----2---|
A|-------------------------|-------------------------|-------------------------|
E|-0======================-|-0======================-|-0======================-|
 | | | | | | | | | | | | | | | | | | | | | | | | | | | | | | | | | | | | | | | |
R  a i m a i m a i m a i m   p i m a i m a i m a i m   a i m a i m a i m a i m
   p                                                   p
L  4 2 3 1 2 3 4 2 3 1 2 3     2 3 4 2 3 4 2 3 4 2 3   4 1 3 2 1 3 4 1 3 2 1 3

[49]                         V3......... III3........  I...........
e|-------4-----4-----4-----|-7-----5-----5-----3-----|-3-----2-----2-----0-----|
G|-----3-----3-----3-----3-|-----5-----5-----3-----3-|-----1-----1-----2-----2-|
B|---4-----4-----4-----4---|---5-----5-----4-----4---|---2-----2-----0-----0---|
D|-------------------------|-------------------------|-------------------------|
A|-------------------------|-0======================-|-0==========-1==========-|
E|-0======================-|-------------------------|-------------------------|
 | | | | | | | | | | | | | | | | | | | | | | | | | | | | | | | | | | | | | | | |
R  p i m a i m a i m a i m   a i m a i m a i m a i m   a i m a i m a i m a i m
                             p                         p           p
L    3 2 4 3 2 4 3 2 4 3 2   4 1 1 1 1 1 4 2 1 1 2 1   4 2 1 3 2 1 4   3     3
                             1                                     1
[52]
e|-0======================-|-------0-----0-----0-----|-0======================-|
G|-------4-----4---------0=|========================-|-------4-----4---------0=|
B|-----4-----4-----4-------|-----3-----3-----3-----3-|-----4-----4-----4-------|
D|---4-----4-----4-----4---|---5-----5-----5-----5---|---4-----4-----4-----4---|
A|-2-----------------2-----|-2======================-|-2================-2====-|
E|-------------------------|-------------------------|-------------------------|
 | | | | | | | | | | | | | | | | | | | | | | | | | | | | | | | | | | | | | | | |
R  a i m a i m a i m p i a   p i m a i m a i m a i m   a i m a i m a i m p i m
   p                                                   p
L  1 2 3 4 2 3 4 2 3 1 2     1 4 2   4 2   4 2   4 2   1 2 3 4 2 3 4 2 3 1 2


[55]
e|-------0-----0-----0-----|-0======================-|-------------------------|
G|========================-|-------4-----4---------0-|-------0-----0-----0-----|
B|-----3-----3-----3-----3-|-----4-----4-----4-------|-------------------------|
D|---5-----5-----5-----5---|---4-----4-----4-----4---|-------------------------|
A|-2======================-|-2================-2====-|-2======================-|
E|-------------------------|-------------------------|-------------------------|
 | | | | | | | | | | | | | | | | | | | | | | | | | | | | | | | | | | | | | | | |
R  p i m a i m a i m a i m   a i m a i m a i m p i m   p     a     m     i
                             p
L  1 4 2   4 2   4 2   4 2   1 2 3 4 2 3 4 2 3 1 2     1

[58]                         II5............................
e|-------4-----4-----------|-------2-----2-----2-----|-2-----0-----0-----------|
G|-0======================-|-----4-----4-----4-----4-|-----4-----2-----2-----2-|
B|-----1-----1-----1-----1-|---2-----2-----2-----2---|---2-----1-----1-----1---|
D|---2-----2-----2-----2---|-------------------------|-------------------------|
A|-------------------------|-2======================-|-4================-4====-|
E|-0================-0====-|-------------------------|-------------------------|
 | | | | | | | | | | | | | | | | | | | | | | | | | | | | | | | | | | | | | | | |
R  m i m a i m a i m p i m   p i m a i m a i m a i m   a i m a i m a i m p i m
   p                                                   p
L    2 1 4 2 1 4 2 1   2 1   1 1 4 1 1 4 1 1 4 1 1 4   1 1 4   1 2   1 2 3 1 2
                                                       3

[61]                                                   II5.....................
e|-------0-----------------|-------------------------|-------------------------|
G|-----2-----2-4-----2-----|-2-----0-----0---------0-|-------4-----4-----4-----|
B|---1-----1-------4-----2-|-----1-----1-----1---1---|-----2-----2-----2-----2-|
D|---------------2-----2---|---2-----2-----2---2-----|---4-----4-----4-----4---|
A|-0======================-|-2======================-|-2======================-|
E|-------------------------|-------------------------|-------------------------|
 | | | | | | | | | | | | | | | | | | | | | | | | | | | | | | | | | | | | | | | |
R  p i m a i m a i m a i m   a i m a i m a i m i m a   p i m a i m a i m a i m
                             p
L    1 2   1 2 4 1 3 4 2 3   4 3 1   2 1   2 1 2 1     1 3 1 4 3 1 4 3 1 4 3 1
                             2
[64]....
e|-------0-----0-----------|-------------------------|-------4-----4-----------|
G|-4-----------------0-----|-------0-----0-----0-----|-0======================-|
B|-----2-----1-----1-----1-|-----1-----1-----1-----1-|-----1-----1-----1-----1-|
D|---4-----2-----2-----2---|---2-----2-----2-----2---|---2-----2-----2-----2---|
A|-------------------------|-------------------------|-------------------------|
E|-0======================-|-0======================-|-0================-0====-|
 | | | | | | | | | | | | | | | | | | | | | | | | | | | | | | | | | | | | | | | |
R  a i m a i m a i m a i m   p i m a i m a i m a i m   a i m a i m a i m p i m
   p                                                   p
L  4 3 1   2 1   2 1   2 1     2 1   2 1   2 1   2 1     2 1 4 2 1 4 2 1   2 1

[67]II5.............................
e|-------2-----2-----2-----|-2-----0-----0-----------|-------0-----------------|
G|-----4-----4-----4-----4-|-----4-----2-----2-----2-|-----2-----2-4-----2-----|
B|---2-----2-----2-----2---|---2-----1-----1-----1---|---1-----1-------4-----2-|
D|-------------------------|-------------------------|---------------2-----2---|
A|-2==========-3==========-|-4================-4====-|-0======================-|
E|-------------------------|-------------------------|-------------------------|
 | | | | | | | | | | | | | | | | | | | | | | | | | | | | | | | | | | | | | | | |
R  p i m a i m a i m a i m   a i m a i m a i m p i m   p i m a i m a i m a i m
               p             p
L  1 1 4 1 1 4 1 1 4 1 1 4   1 1 4   1 2   1 2 3 1 2     1 2   1 2 4 1 3 4 2 3
               2             3

[70]                         II5.....................
e|-------------------------|-------------------------|-0-----4-----2-----0-----|
G|-2-----0-----0-----------|-------4-----4-----4-----|-------------------------|
B|-----1-----1-----1-----1-|-----2-----2-----2-----2-|-----1-----1-----1-----1-|
D|---2-----2-----2-----2---|---4-----4-----4-----4---|---2-----2-----2-----2---|
A|-2================-2====-|-2======================-|-------------------------|
E|-------------------------|-------------------------|-0======================-|
 | | | | | | | | | | | | | | | | | | | | | | | | | | | | | | | | | | | | | | | |
R  a i m a i m a i m p i m   p i m a i m a i m a i m   a i m a i m a i m a i m
   p                                                   p
L  4 3 1   3 1   3 1 2 3 1   1 3 1 4 3 1 4 3 1 4 3 1     2 1 4 2 1 3 2 1   2 1
   2

[73]II4..                                              II5.....................
e|-2-----0-----------------|-------------------------|-------------------------|
G|-----4-----2-4-----2-----|-2-----0-----0-----------|-------4-----4-----4-----|
B|-----------------4-----2-|-----1-----1-----1-----1-|-----2-----2-----2-----2-|
D|---2-----2-----2-----2---|---2-----2-----2-----2---|---4-----4-----4-----4---|
A|-0======================-|-2================-2====-|-2======================-|
E|-------------------------|-------------------------|-------------------------|
 | | | | | | | | | | | | | | | | | | | | | | | | | | | | | | | | | | | | | | | |
R  a i m a i m a i m a i m   a i m a i m a i m p i m   p i m a i m a i m a i m
   p                         p
L  1 1 4   1 2 4 1 3 4 2 3   4 3 1   3 1   3 1 2 3 1   1 3 1 4 3 1 4 3 1 4 3 1
                             2

[76]
e|-0======================-|-------------0==========-|-------------2-----0-----|
G|-----0-----0-----0-----0-|-------0-----------4-----|-------0-----------------|
B|---1-----1-----1-----1---|-----2-----2-----2-----2-|-----1-----1-----1-----1-|
D|-------2-----2-----2-----|---4-----4-----4-----4---|---2-----2-----2-----2---|
A|-------------------------|-------------------------|-------------------------|
E|-0======================-|-0======================-|-0======================-|
 | | | | | | | | | | | | | | | | | | | | | | | | | | | | | | | | | | | | | | | |
R  a m a i m a i m a i m a   p i m a i m a i m a i m   p i m a i m a i m a i m
   p
L    1   2 1   2 1   2 1       3 1   3 1   3 1 4 3 1     2 1   2 1   2 1   2 1

[79]
e|-------------4-----2-----|-------------2-----0-----|-------------0==========-|
G|-------0-----------------|-------0-----------------|-------0-----------4-----|
B|-----2-----2-----2-----2-|-----1-----1-----1-----1-|-----2-----2-----2-----2-|
D|---1-----1-----1-----1---|---2-----2-----2-----2---|---4-----4-----4-----4---|
A|-------------------------|-------------------------|-------------------------|
E|-0======================-|-0======================-|-0======================-|
 | | | | | | | | | | | | | | | | | | | | | | | | | | | | | | | | | | | | | | | |
R  p i m a i m a i m a i m   p i m a i m a i m a i m   p i m a i m a i m a i m

L    1 2   1 2 4 1 2 3 1 2     2 1   2 1 3 2 1   2 1     3 1   3 1   3 1 4 3 1

[82]
e|-------------2-----0-----|-------------4-----2-----|-------------0==========-|
G|-------0-----------------|-------0-----------------|-------0-----------------|
B|-----1-----1-----1-----1-|-----2-----2-----2-----2-|-----1-----1-----1-----1-|
D|---2-----2-----2-----2---|---1-----1-----1-----1---|---2-----2-----2-----2---|
A|-------------------------|-------------------------|-------------------2====-|
E|-0======================-|-0======================-|-0======================-|
 | | | | | | | | | | | | | | | | | | | | | | | | | | | | | | | | | | | | | | | |
R  p i m a i m a i m a i m   p i m a i m a i m a i m   p i m a i m a i m p i m

L    2 1   2 1 3 2 1   2 1     1 2   1 2 4 1 2 3 1 2     3 1   3 1   3 1 2 3 1

[85]
e|-------------0==========-|-------------0==========-|-0======================-|
G|-------0-----------------|-------0-----------0-----|-------------------------|
B|-----1-----1-----1-----1-|-----1-----1-----1-----1-|-------------------------|
D|---2-----2-----2-----2---|---2-----2-----2-----2---|-------------------------|
A|-------------------2====-|-------------------------|-------------------------|
E|-0======================-|-0==========-0==========-|-0======================-|
 | | | | | | | | | | | | | | | | | | | | | | | | | | | | | | | | | | | | | | | |
R  p i m a i m a i m p i m   p i m a i m a i m a i m   a
                                         p             p
L    3 1   3 1   3 1 2 3 1     3 1   3 1   3 1   3 1





Comments


Popular Fernando Sor tabs & chords
Allegretto Tabs
Estudio 1 Tabs
Estudio 5 Tabs
Opus 35 1 Tabs
Opus 35 No 13 In C Tabs
Opus 35 No1 In C Tabs
Opus 35 No17 In D Tabs
Opus 61 In D Tabs
Study In C Tabs
Waltz Of The Robins Tabs


Song lyrics



↑ Back to top | Tablatures and chords are parodies/interpretations of the original songs. You may use it for private study, scholarship, research or language learning purposes only
© 2014 AZChords.com Contact us | Privacy policy | DMCA | Add/correct tabs | Request tabs | Top 50 tabs