» » »

Fernando Sor, Opus 35 No 13 In C Tabs (ver.1)

Artists:  A B C D E F G H I J K L M N O P Q R S T U V W X Y Z # 

Opus 35 No 13 In C Tabs (ver.1)

Fernando Sor Tabs
 Rating:
4/5 (4 votes)
Opus 35 No 13 In C lessons Tabs too difficult? Try these video lessons and learn fast
                B-|---Composer:-Fernando-Sor-----------------------|
G-|---Transcription-by:Christian Liang-------------|   
E-|---Enjoy!---------------------------------------|

Opus 35 No 13 in C- by Fernando Sor

Part A- Play Twice 

[1]
e||-0---------------|-3-------0-------|---------0-------|
B||---------1-------|-------------1---|-3-----------3---|
G||---0---0---0---0-|---0---0---0---0-|---0---0---0---0-|
D||-----2---2---2---|-----2---2---2---|-----3---3---3---|
A||-3---------------|-3---------------|-3---------------|
E||-----------------|-----------------|-----------------|

LH  m i p i m i p i   m i p i m i p i   m i p i m i p i   
    p       p         p       p         p       p         
RH  3   2   1   2     4   2   2   1     4   3   3   4     
            2         3           2     2           3     
                  
[4]
e|------------------|-0---------------|-3-------0-------|
B|--3-------1-------|---------1-------|-------------1---|
G|----0---0---0---0-|---0---0---0---0-|---0---0---0---0-|
D|------2---2---2---|-----2---2---2---|-----2---2---2---|
A|--3---------------|-3---------------|-3---------------|
E|------------------|-----------------|-----------------|

LH  m i p i m i p i   m i p i m i p i   m i p i m i m i   
    p       p         p       p         p       p   p     
RH  4   2   1   2     3   2   1   2     4   2   2   1         
    3       2                 2         3           2             

[7]                  ending 1            ending 2
e|-------------0---|-----------------||-----------------|
B|-0-------1-------|-3---------------||-3---------------|
G|---0---0---0---0-|---0---0---0---0-||---0--------0----|
D|-0---3---2-------|-----------------||-----0-----------|
A|-------------3---|-2-------0---2---||-2-----2---------|
E|-----------------|-----3-----------||---------3-------|

LH m i p i m i m i   m i p i p i p i    m i i i p  m
   p       p   p     p                  p
RH     3   1   3     4   3       2      4       3  
           2         2                  2  



Part B- Play Twice
[10]                                    ending 1
e||-----------------|---------0---3---|-3---1---1---1---|
B||-3-------3-------|-3---1-----------|---0---0---3---3-|
G||---0---0---0---0-|---0---0---0---0-|-----0-------0---|
D||-----3---3---3---|-----2---2---2---|-0---------------|
A||-2---------------|-3---------------|---------2-------|
E||-----------------|-----------------|-----------------|

LH m i p i p i p i    m i m i m i m i   m i m i m i m i   
   p                  p   p   p   p     p   p   p   p     
RH 4   3   4   3      4   1   2   4     4   1   1 4 1 4   
   2       3          3   2       2             2            


[13]                  ending 2
e|-1-------0-------||-1-------0-------|-----------------|
B|---3---3---1-----||-----3-------1---|-0-----0-1h2-3-4-|
G|-----0---0-----0-||---0---0---0---0-|---0h2-----------|
D|-------------2---||-0---------------|-----------------|
A|-3---------------||-----2---3---0---|-----------------|
E|-----------------||-----------------|-3---------------|

LH m i p i m i p i    m i m i m i m i   m i   m i   m i 
   p       p          p   p   p   p     p
RH 1 4   4   1 2      1   4   3   1     3   2   1   3 4
   3                                       2
    
Part C- Play twice (First time go back to Part B)
[19]                                    III                                
e||-0---------------|-3-------0-------|-----------------|
B||---------1-------|-------------1---|-3-------5---3---|
G||---0---0---0---0-|---0---0---0---0-|---4---4---4---4-|
D||-----2---2---2---|-----2---2---2---|-----3---3---3---|
A||-3---------------|-3---------------|-----------------|
E||-----------------|-----------------|-4---------------|

LH  m i p i m i p i   m i p i m i p i   m i p i m i p i    
    p       p         p                 p                 
RH  3   2   1   2     4   2   2   1     1 3 1 3 4 3 1 3   
            2         3           2     2       1   1             

[22]                 II
e|-----------------|-----------------|-0-------1-------|
B|-3-------1-------|-2-------2-------|-----3-------3---|
G|---2---2---2---2-|---3---3---3---3-|---2---2---2---2-|
D|-----2---2---2---|-----2---2---2---|-----3---3---3---|
A|-0---------------|-----------------|-----------------|
E|-----------------|-3---------------|-1---------------|

LH m i p i m i p i   m i p i m i p i   m i p i m i p i   
   p                 p                 p                 
RH 4 3 2 3 1 3 2 3   1 3 1 3 1 3 1 3   1 2 4 2 1 2 4 2   
           2         2       1             3   3   3     

[25]
e|-----------------|----------------|
B|-3---1---1---0---|-1--------------|
G|---0---0---0---0-|---0---0--------|
D|-----2-----------|-----2----------|
A|-----------------|-3-------3------|
E|-3---------------|----------------|

LH m i m i m i m i   m i p i p  
   p   p   p   p     p
RH 4   1   1         1   2   3
   3   2             4  3


----
Tips
----


Exercise: ( p+m i p i ) pattern

Many Fernando Sor's songs are structure as Estudio or 
Study Exercises. The main goal of these "studies" is to 
provide memorable pieces and enhance the skill and knowledge 

of the practitioner. Andres Segovia selected a set of 20 of 
those studies, each emphasizing a particular aspect of 
technique, and these are now some of the best known of 

Sor's works. Opus 35. No13 is study 2 which deal with 
double plucks.

Song pattern ( p+m i p i) 

This pattern is not uniform throughout as there are many 
variations of double plucks-thumb with middle/index finger. 


Play in this Order

Part A - ending 1
Part A - ending 2

Part B - ending 1
Part B - ending 2
Part C

Part B - ending 1
Part B - ending 2
Part C 

AABBCBBC

Technique 
There are many variations of double plucks- either with thumb 
with middle or ring finger. Opus 35. No.13 is simple song for 
the left hand with only 2 barred chords. The 

trick is all on the right hand. 

Tip: This song sound good fast or slow as long as it's in tempo. 
Start slow and progress to turbo. 

Note there are different endings for the double repeat except 
for the last part c. 

Etude II-Opus 35, No.13 

I have included the left (LH) and right (RH) hand fingering. 
p = pulgar = thumb
i = indice = index
m = medio = middle
a = anular = ring
            
Submit corrections

comments powered by Disqus
↑ Back to top | Fernando Sor Tabs for Opus 35 No 13 In C. Lyrics for acoustic guitar and electric guitar. Tablatures and chords are parodies/interpretations of the original songs. You may use it for private study, scholarship, research or language learning purposes only