>
 >
Opus 2 No 1

Opus 2 No 1 Guitar Tabs

Fernando Sor - Opus 2 No 1 chords, tabs, tablatures, lyrics

Guitar lessons | Add/correct | Request | Top 50 tabs Artists:  A B C D E F G H I J K L M N O P Q R S T U V W X Y Z 0-9

Opus 2 No 1 Guitar Tabs – Fernando Sor

CD, Sheet music, Poster

Do you like Opus 2 No 1? Share with your friends now
Tabs
E-|---Song:-Opus2-No1-Minuet-in-G-Major------------|
A-|---Composer:-Fernando-Sor-----------------------|
D-|---Transcription-by:Christian Liang-------------|
E-|---Enjoy!---------------------------------------|

        Opus 2 No.1 Minuet in G Major by Fernando Sor (17881839)


3/4 Andante G Major


[1]                                                           III.
e||-3----3----3--|--3========-2--|--5----5----5--|--5========-3--|
B||-0----0----0--|--1===========-|---------------|---------------|
G||*0---------0--|--2------------|--5----5----5--|--5========-4--|
D||*-----0-------|-------0======-|--0----2----4--|--5---0--------|
A||--------------|---------------|---------------|---------------|
E||--------------|---------------|---------------|------------3--|
    |    |    |     |    |    |     |    |    |     |    |    |  
L   4    4    4     4         3     4    4    4     4         1
                    1               3    3    3     3         2
                    2                    1    2     2         1

[5]
e|--7----5----3--|--3----2----0--|---------------|--------------||
B|--8----7----5--|--5----3----1--|--3----1----0--|--0-----------||
G|--0===========-|--0===========-|--4----2----0--|--0----2-----*||
D|---------------|---------------|--5------------|-------4-----*||
A|---------------|---------------|-------3----4--|--5==========-||
E|---------------|---------------|---------------|--------------||
    |    |    |     |    |    |     |    |    |     |    |    |  
L   1    1    1     1    1    1     1    1    3     4    1
    2    3    3     3    2          2    2               3
                                    3    3

[9]
e||------0----2--|--3========-2--|-------0----2--|--3========-2--|
B||-3----2----1--|--0----2----3--|--3----2----1--|--0----2----3--|
G||*-------------|---------------|---------------|-------3----2--|
D||*0===========-|--0===========-|--0===========-|--0===========-|
A||--------------|---------------|---------------|---------------|
E||--------------|---------------|---------------|---------------|
    |    |    |     |    |    |     |    |    |     |    |    |  
L   2    2    3     3    2    1     2    2    3     3    1    2
              1               2               1          2    1
                                                              3

[13]                                     V....
e|-------0----2--|--3----1======-|--0----5----2--|--2----3------||
B|--3----2----1--|--0----3======-|--1----5----1--|--1----0------||
G|---------------|--0----0======-|--0----5----2--|--0=========-*||
D|--0===========-|---------------|------------0--|-------------*||
A|---------------|-------2======-|--3----0-------|--------------||
E|---------------|---------------|---------------|--------------||
    |    |    |     |    |    |     |    |    |     |    |    |  
L   3    2    3     3    1          1    1    3     2    3
              1          4          3    1    1     1
                         2               1    2





Comments


Popular Fernando Sor tabs & chords
Estudio 5 In B Minor Tabs
Estudio 6 Tabs
Etude In E Minor Allegro Moderato Tabs
Opus 35 Tabs
Opus 35 1 Tabs
Opus 35 No 13 In C Tabs
Opus 35 No1 In C Tabs
Study In G Tabs
Three Easy Pieces Tabs
Waltz Tabs


Song lyrics



↑ Back to top | Tablatures and chords are parodies/interpretations of the original songs. You may use it for private study, scholarship, research or language learning purposes only
© 2014 AZChords.com Contact us | Privacy policy | DMCA | Add/correct tabs | Request tabs | Top 50 tabs