>
 >
Minueto

Minueto Guitar Tabs

Fernando Sor - Minueto chords, tabs, tablatures, lyrics

Guitar lessons | Add/correct | Request | Top 50 tabs Artists:  A B C D E F G H I J K L M N O P Q R S T U V W X Y Z 0-9

Minueto Guitar Tabs – Fernando Sor

CD, Sheet music, Poster

Do you like Minueto? Share with your friends now
Tabs
                          De la Sonata Op. 25
                                F. Sor

                  Transcribed (sloppily) into text by
                            Paul G. Steffen
                           (STratoHAK on IRC)

  V   .   V   .   V   .     V   .   V   .   V   .     V   .   V   .   V   .
|------------------------||-------------------------|-0---------------0-------|
|------------------------||-1---------------3-1-0-1-|-------------------------|
|-----------------0------||---------0---------------|---------0---------------|
|------------------------||---------2---------------|---------2---------------|
|------------------------||---------3---------------|---------3---------------|
|------------------------||-------------------------|-------------------------|
                         (A)
  V   .   V   .   V   .     V	.   V	.   V	.     V   .   V   .   V   .
|-3---------------2-------|-3-----------------------|-3p1---------------------|
|---------1-------1-------|-1-----------------------|---------3-------3-------|
|---------0-------2-------|-0-----------------------|---------0-------0-------|
|---------2-------1-------|-2-----------------------|---------3-------3-------|
|-------------------------|-------------------------|---------2-------2-------|
|-------------------------|-------------------------|-------------------------|
                                                                        1.
                                                                    ,---------
  V   .   V   .   V   .     V	.   V	.   V	.     V   .   V   .   V   .
|-1p0---------------------|-------------------------|------------------------||
|---------1-------1-------|---------6-------5-------|-3---------------------:||
|---------0-------0-------|---------4-------5-------|-4---------------0------||
|---------2-------2-------|-5---------------5-------|------------------------||
|---------3-------3-------|-------------------------|-----------------------:||
|-------------------------|---------3---------------|-3----------------------||
                                                                       (goto A)
  V   .   V   .   V   .     V   .   V   .   V   .     V   .   V   .   V   .
|-------------------------|-------------------------|-----------------0-------|
|:--------0-------3-------|-1-----3-1---0---1-------|---------2---------------|
|-0-----------------------|-0-----------------------|-3-----------------------|
|-3-----------------------|-2-----------------------|-5-----------------------|
|:------------------------|-------------------------|-------------------------|
|-------------------------|-------------------------|-------------------------|
(B)
  V   .   V   .   V   .     V   .   V   .   V   .     V   .   V   .   V   .
|-------------------------|-------------------------|-------------------------|
|-3-------3---2---3-~~10--|-10------9-------10------|-6-------5-------6-------|
|-2-----------------------|-10------9-------10------|-7-------6-------7-------|
|-3-----------------------|-------------------------|-------------------------|
|-------------------------|-------------------------|-------------------------|
|-------------------------|-------------------------|-------------------------|

  V   .   V   .   V   .     V   .   V   .   V   .     V   .   V   .   V   .
|-----------------2-------|-3-----------------------|-------------------------|
|-5---------------1-------|-0-----------------------|-1---------------3-1-0-1-|
|-5-----------------------|-----------------0-------|---------0---------------|
|-----------------0-------|-------------------------|---------2---------------|
|-3-------0---------------|-------------------------|---------3---------------|
|-------------------------|-3-----------------------|-------------------------|

  V   .   V   .   V   .     V   .   V   .   V   .     V   .   V   .   V   .
|-0---------------0-------|-3---------------2-------|-3-----------------------|
|-------------------------|---------1-------1-------|-1-----------------------|
|---------0---------------|---------0-------2-------|-0-----------------------|
|---------2---------------|---------2-------1-------|-2-----------------------|
|---------3---------------|-------------------------|-------------------------|
|-------------------------|-------------------------|-------------------------|

  V   .   V   .   V   .     V   .   V   .   V   .     V   .   V   .   V   .
|-3---1-------------------|-1---0-------------------|-------------------------|
|---------3-------3-------|---------1-------1-------|---------6-------5-------|
|---------0-------0-------|---------0-------0-------|---------4-------5-------|
|---------3-------3-------|---------2-------2-------|-5---------------5-------|
|---------2-------2-------|---------3-------3-------|-------------------------|
|-------------------------|-------------------------|---------3---------------|

  V   .   V   .   V   .     V   .   V   .   V   .     V   .   V   .   V   .
|-------------------------|-------------------------|-0---------------0-------|
|-3-----------------------|-1---------------3-1-0-1-|-------------------------|
|-4---------------0-------|---------0---------------|---------0---------------|
|-------------------------|---------2---------------|---------2---------------|
|-------------------------|---------3---------------|---------3---------------|
|-3-----------------------|-------------------------|-------------------------|

  V   .   V   .   V   .     V   .   V   .   V   .     V   .   V   .   V   .
|-3---------------3-------|-2-----------------------|-10p8--------------------|
|---------1-------1-------|-1-----------------------|---------7-------7-------|
|---------0-------0-------|-2-----------------------|---------7-------7-------|
|---------2-------1-------|-0-----------------------|-------------------------|
|-------------------------|-------------------------|-------------------------|
|-------------------------|-------------------------|-------------------------|

  V   .   V   .   V   .     V   .   V   .   V   .     V   .   V   .   V   .
|-8p7---------------------|-8p6---------------------|-6p5---------------------|
|---------8-------8-------|---------5-------5-------|---------6-------6-------|
|---------7-------7-------|---------5-------5-------|---------5-------5-------|
|-------------------------|-------------------------|-------------------------|
|-------------------------|-------------------------|-------------------------|
|-------------------------|-------------------------|-------------------------|

  V   .   V   .   V   .     V   .   V   .   V   .     V   .   V   .   V   .
|-7p5---------------------|-5p4---------------------|-5p3---------------------|
|---------4-------4-------|---------5-------5-------|---------2-------2-------|
|---------4-------4-------|---------4-------4-------|---------2-------2-------|
|-------------------------|-------------------------|-------------------------|
|-------------------------|-------------------------|-------------------------|
|-------------------------|-------------------------|-------------------------|

  V   .   V   .   V   .     V   .   V   .   V   .     V   .   V   .   V   .
|-3p2---------------------|---------1-------1-------|---------0-------0-------|
|---------3-------3-------|---------0-------0-------|---------1-------1-------|
|---------2-------2-------|-------------------------|-------------------------|
|-------------------------|-5---3---0-------0-------|-3---2-------------------|
|-------------------------|-------------------------|---------3-------3-------|
|-------------------------|-------------------------|-------------------------|

  V   .   V   .   V   .     V   .   V   .   V   .
|---------1---------------|------------------------|
|---------3-------0-------|-1---------------------:|
|---------2-------0-------|-0----------------------|
|-----------------3-------|-2----------------------|
|-------------------------|-3---------------------:|
|-1---------------3-------|------------------------|
                                            (goto B)
  V   .   V   .   V   .     V   .   V   .   V   .
|-------------------------|-------------------------|
|:----------------0-------|-------------------------|
|-------------------------|---------0---2---0-------|
|-------------------------|--2----------------------|
|:------------------------|--3----------------------|
|-------------------------|-------------------------|
(C)
  V   .   V   .   V   .     V   .   V   .   V   .     V   .   V   .   V   .
|-------------------------|-------------------------|-1---------------1---0---|
|-------------------------|-1-----3p1---0---1-------|-0-----------------------|
|---------0---2---0-------|---------0---------------|-0-----------------------|
|-3-----------------------|-2-------2-------2-------|-0-----------------------|
|-2-----------------------|-3---------------3-------|-2-----------------------|
|-------------------------|-------------------------|-3-----------------------|

  V   .   V   .   V   .     V   .   V   .   V   .     V   .   V   .   V   .
|-------------------------|-------------------------|-------------------------|
|-3---1---0---------------|-----------------1-------|---------3-------0-------|
|-------------2---0-------|---------0---------------|-2-----------------------|
|---------------------3---|-2---------------2-------|-3---------------3-------|
|-------------------------|-------------------------|-------------------------|
|-------------------------|-------------------------|-----------------3-------|

  V   .   V   .   V   .     V   .   V   .   V   .     V   .   V   .   V   .
|------------------------||-------------------------|-------------------------|
|-1---------------------:||:----------------1-------|---------1---0---1-------|
|------------------------||-------------------------|-3-----------------------|
|-2----------------------||-------------------------|-2-----------------------|
|-3---------------------:||:------------------------|-------------------------|
|------------------------||-------------------------|-------------------------|
                 (goto C) (D)
  V   .   V   .   V   .     V   .   V   .   V   .     V   .   V   .   V   .
|-------------------------|-------------------------|-------------------------|
|---------1-------2-------|---------3---5---3-------|---------3-------4-------|
|-2-----------------------|-5-----------------------|-4-----------------------|
|-3-----------------------|-4-----------------------|-5-----------------------|
|-------------------------|-------------------------|-------------------------|
|-------------------------|-------------------------|-------------------------|

  V   .   V   .   V   .     V   .   V   .   V   .     V   .   V   .   V   .
|-------------------------|-------------------------|-------------------------|
|---------5---6---5-------|---------8-------7-------|-6-------6-------6-------|
|-7-----------------------|-5-----------------------|---------5-------5-------|
|-6-----------------------|-7-----------------------|---------6-------6-------|
|-------------------------|-------------------------|-------------------------|
|-------------------------|-------------------------|-------------------------|

  V   .   V   .   V   .     V   .   V   .   V   .     V   .   V   .   V   .
|-0h1h3--p1---------------|-------------------------|-------------------------|
|-0-----------------------|-------------------------|-------------------------|
|-0---------------0-------|---------0---2---0-------|---------0---2---0-------|
|-------------------------|-2-----------------------|-3-----------------------|
|-------------------------|-3-----------------------|-2-----------------------|
|-------------------------|-------------------------|-------------------------|

  V   .   V   .   V   .     V   .   V   .   V   .     V   .   V   .   V   .
|-------------------------|-1---------------1---0---|-------------------------|
|-1-----3p1---0---1-------|-0-----------------------|-3---1---0---------------|
|---------0---------------|-0-----------------------|-------------2---0-------|
|-2-------2-------2-------|-0-----------------------|---------------------3---|
|-3---------------3-------|-2-----------------------|-------------------------|
|-------------------------|-3-----------------------|-------------------------|

  V   .   V   .   V   .     V   .   V   .   V   .     V   .   V   .   V   .
|-------------------------|-------------------------|------------------------||
|-----------------1-------|---------3-------0-------|-1---------------------:||
|---------0---------------|-2-----------------------|------------------------||
|-2---------------2-------|-3---------------3-------|-2----------------------||
|-------------------------|-------------------------|-3---------------------:||
|-------------------------|-----------------3-------|------------------------||
                                                                       (goto D)





Comments


Popular Fernando Sor tabs & chords
E Minor At Midnight Tabs
Easter Hymn Tabs
Estudio 5 In B Minor Tabs
Etude In E Minor Tabs
Etude In E Minor Allegro Moderato Tabs
Opus 2 No 1 Tabs
Opus 35 Tabs
Opus 35 No 22 In B Minor Tabs
Opus 35 No17 In D Tabs
Opus 6 No 11 Etude 17 Tabs


Song lyrics



↑ Back to top | Tablatures and chords are parodies/interpretations of the original songs. You may use it for private study, scholarship, research or language learning purposes only
© 2014 AZChords.com Contact us | Privacy policy | DMCA | Add/correct tabs | Request tabs | Top 50 tabs