» » »

Fernando Sor, Minuet In G From Thema Varie Op Tabs (ver.1)

Artists:  A B C D E F G H I J K L M N O P Q R S T U V W X Y Z # 

Minuet In G From Thema Varie Op Tabs (ver.1)

Fernando Sor Tabs
 Rating:
4/5 (4 votes)
Minuet In G From Thema Varie Op lessons Tabs too difficult? Try these video lessons and learn fast
1
                "(3)
Tuning: EADGBE 	
Time Signature: 3/4

Andante     
|------------------------|------------------------|------------------------|
|------------0-----------|--1-------------1-------|--1---0---1---2--3--4---|
|------------------------|------------------------|--0--------------0------|
|------------0-----------|------4--2--0-------4---|------------------------|
|------------------------|--0-------------0-------|-----------------2------|
|------------3----4------|------------------------|--3---------------------|


|--0--------2----3--5----|---3------2-------------|--------------0--5------|
|------------------------|----------------3--4----|--5---3---2---------2---|
|-----1--2---------------|---2------------4-------|--4-------2-------------|
|------------------------|---0------------5-------|--5-------5-------------|
|--3-------------4-------|------------------------|------------------------|
|------------------------|------------------------|------------------------|

                                   VI
|-----0---2---3---5---6--|---7-----10-------------|------------------------|
|--3----------2---3------|----------6-----7----5--|-----3-----------------*|
|--2--2---2-----------3--|---7------7-----7----2--|------------------------|
|--4----------2---4---4--|---5------6-----7----5--|-----4------------------|
|-----4---0--------------|---------------------0--|-----5-----------------*|
|------------------------|------------------------|------------------------|

                III                          I                       III
|------------------------|-------------------1----|--1----0-----------3----|
|*---------------3-------|---3-^-1----0------3----|--3--------3---1---5----|
|----------------4-------|---2-----------2---1----|--2----------------3----|
|----------------3-------|---2--------------------|------------------------|
|*-----------------------|---0---------------2----|--3----------------4----|
|----------------4-------|------------------------|------------------------|


|--3-^-2---0--------8----|--8---7------------10---|---10------8---7--5--3--|
|--3----------3--/--7----|--7-------10---8----8---|-------9--10------------|
|--2---------------------|--7----------------10---|------------------5-----|
|--0----------------7----|--5----------------12---|---10-------------------|
|-------------------5----|------------------------|------------------------|
|------------------------|------------------------|------------------------|


|--2--------3------------|--------------0---2--3--|------------------------|
|--1--------0------5-----|-3---5^3^2^3--2------0-*|*------------3---4------|
|--2--------0------3-----|-4------------2------0--|-------------4----------|
|--1--------2------5-----|-5------------0---------|------------------------|
|------------------4-----|-5---------------------*|*-----------------------|
|------------------------|---------------------3--|-------------3----------|


   III--------------------------------------|
|-------3------5---------|--3---7---5---3---------|
|---5-------7------3--7--|-----------------3--3-4-|
|---5--------------4-----|--4-----------------4---|
|------------------------|------------------------|
|---3--------------------|------------------------|
|------------------3-----|--3-----------------3---|
 

                                                  1/2 VII-----------|
|--0---3---2---5------2--|--3----------10---------|--10----9---7--------8--|
|--1--------------3------|--0-----------9---------|---8-----------10----7--|
|-----------------5------|------------------------|---9--------------------|
|------------------------|--------------9---------|---7-----------------7--|
|------------------------|--------------7---------|---------------------5--|
|--3--------------3------|--3---------------------|------------------------|


  1/2 V---------|          1/2 III--|
|--8----7--5--7---8---5--|---3--------7-----5--3--|------------------------|
|--6---------------------|-----3---3-----------0-*|------------------------|
|--7--------------9---5--|-------4-------7--------|------------------------|
|--5---------------------|---0--------0-----------|------------------------|
|-----------------0---3--|-----------------------*|------------------------|
|------------------------|---------------------3--|------------------------|


|------------------------|------------------------|------------------------|
|-------------------|-----------------1------|---0--------------|
|-------------------|-----------------2------|---0--------------|
|------------------------|------------0------|---0--------------------|
|------------------------|------------------------|------------------------|
|------------------------|-----------------2------|---3--------------------|


|-------------2----3----||
|-------------3----0----||
|-------------2----0----||
|-------0----0----||
|------------------2----||
|------------------3----||
"            
Submit corrections

comments powered by Disqus
↑ Back to top | Fernando Sor Tabs for Minuet In G From Thema Varie Op. Lyrics for acoustic guitar and electric guitar. 1 Tablatures and chords are parodies/interpretations of the original songs. You may use it for private study, scholarship, research or language learning purposes only