>
 >
March Of The Wooden Soldier

March Of The Wooden Soldier Guitar Tabs

Fernando Sor - March Of The Wooden Soldier chords, tabs, tablatures, lyrics

Guitar lessons | Add/correct | Request | Top 50 tabs Artists:  A B C D E F G H I J K L M N O P Q R S T U V W X Y Z 0-9

March Of The Wooden Soldier Guitar Tabs – Fernando Sor

CD, Sheet music, Poster

Do you like March Of The Wooden Soldier? Share with your friends now
Tabs
E-|---Song:-March-of-the-Wooden-Soldier------------|
D-|---Transcription-by:Christian Liang-------------|
E-|---Enjoy!---------------------------------------|


[1]

E|-------------0---|-----------------|-------------1---|
B|-----------------|-1---------------|-------0-3-------|
G|-----------------|-----0-----------|-----0-----------|
D|-----------------|---------2-------|---0-------------|
A|-----------------|-------------3---|-2---------------|
E|-----------------|-----------------|-----------------|
 | | | | | | | | | | | | | | | | | | | | | | | | | | | 
R              a     m   i   i   p     p p i m m   a     

L                    1       2   3     2       4   1     

[4]

E|-----------------|-------0-3-------|-------------1---|
B|-3---0-----------|-----1-----------|-----1---3-------|
G|---------0-------|---0---------0---|-2---------------|
D|-------------3---|-2---------------|-----------------|
A|-----------------|-----------------|-----------------|
E|-----------------|-----------------|-----------------|
 | | | | | | | | | | | | | | | | | | | | | | | | | | | 
R  a   m   i   p     p i m a a   i     i   m   m   a

L  4           3     2   1   4         2   1   4   1

[6]

E|-------------0---|-----------------|-------------0---|
B|-----0---1-------|-3-------3---1---|-1p0-------------|
G|-0---------------|-----2-----------|-----2-0---------|
D|-----------------|-----------------|-----------------|
A|-----------------|-----------------|-----------------|
E|-----------------|-----------------|---------3-------|
 | | | | | | | | | | | | | | | | | | | | | | | | | | | |
R  i   m   m   a     m   i   m   m     m   i   p   a     
L          1         4   2   4   1     1   2   3         

[9]

E|-----------------|-------------1---|-----------------|
B|-1---------------|-------0-3-------|-3---0-----------|
G|-----0-----------|-----0-----------|---------0-------|
D|---------2-------|---0-------------|-------------3---|
A|-------------3---|-2---------------|-----------------|
E|-----------------|-----------------|-----------------|
 | | | | | | | | | | | | | | | | | | | | | | | | | | | |
R  m   i   i   p     p p i m m   a     a   m   i   p
L  1       2   3     2       4   1     4           3


[12]

E|-------0-3-------|-----------------|-----------------|
B|-----1-----------|---------0-------|-1-------3-------|
G|---0---------0---|-2---------------|-----------------|
D|-2---------------|-----------------|-----------------|
A|-----------------|-----------------|-----0-------2---|
E|-----------------|-----1-------3---|-----------------|
 | | | | | | | | | | | | | | | | | | | | | | | | | | | |
R  p i m a a   i     i   p   m   p     m   p   m   p     
                                                         

L  2   1   4         2   1       3     1       4   2     
                                                             
[15]

E|-0---------------|-------------0---|---------3-------|
B|-----1---3---0---|-1---------------|-3-----------0---|
G|-------------0---|-----0-----------|-----0-----------|
D|-----2---3-------|-----------------|-----------------|
A|-3---------------|-3-------3-------|-----------------|
E|-----------------|-----------------|-----------------|
 | | | | | | | | | | | | | | | | | | | | | | | | | | | |
R  a   m   m   m     m   i   p   a     m   i   a   m
   p   p   p   i     p
L  3   1   4         1       3         3       4
   2   3         3

[18]

E|-----0-----------|-----------------|-----------------|
B|-1-----------1---|-------------3---|-1---0-------3---|
G|---------2-------|-----2-----------|-----0-----------|
D|-----------------|-4-------0-------|-----------------|
A|-----------------|-----------------|-----------------|
E|-----------------|-----------------|---------3-------|
 | | | | | | | | | | | | | | | | | | | | | | | | | | | |
R  m   a   i   m     p   i   p   m     m   m   p   m     
                                           i                                                 

L  1       2   1     4   2       3     1       3   4             

[21]

E|-------------3---|-0-----------0---|-----------------|
B|-0---------------|---------------1-|-0---3---1-------|
G|-----0-----------|-----0-----------|-------------2---|
D|-----------------|-----------------|-0---------------|
A|---------2-------|---------3-------|-----------------|
E|-----------------|-----------------|-----------------|
 | | | | | | | | | | | | | | | | | | | | | | | | | | | |
R  m   i   p   a     a   i   p   a m   m   i   m   m
                                       p
L          2   4             3     1       4   1   2

[24]

E|-------------0---|-----------------|-------------1---|
B|-----------------|-1---------------|-------0-3-------|
G|-0---------------|-----0-----------|-----0-----------|
D|-----0-----------|---------2-------|---0-------------|
A|-----------------|-------------3---|-2---------------|
E|---------3-------|-----------------|-----------------|
 | | | | | | | | | | | | | | | | | | | | | | | | | | | |
R  m   i   p   a     a   m   i   p     p p i m m   a     
L          3         1       2   3     2       4   1     

[27]

E|-----------------|-------0-3-------|-----------------|
B|-3---0-----------|-----1-----------|---------0-------|
G|---------0-------|---0---------0---|-2---------------|
D|-------------3---|-2---------------|-----------------|
A|-----------------|-----------------|-----------------|
E|-----------------|-----------------|-----1-------3---|
 | | | | | | | | | | | | | | | | | | | | | | | | | | | |
R  m   m   i   p     p i m a a   i     i   p   m   p
L  4           3     2   1   4         2   1       3

[30]

E|-----------------|-0---------------|-----------------|
B|-1-------3-------|-----1---3---0---|-1---------------|
G|-----------------|-----2-------0---|-------0---------|
D|-----------------|---------3-------|-------2---------|
A|-----0-------2---|-3---------------|-3---------3-----|
E|-----------------|-----------------|-----------------|
 | | | | | | | | | | | | | | | | | | | | | | | | | | | | 
R  m   p   m   p     a   m   m   m     m     m   p
                     p   i   p   i     p     i

L  1       4   2     3   1   4         1     2   3
                         2   3         3





Comments


Popular Fernando Sor tabs & chords
Allegro In C Tabs
Easter Hymn Tabs
Estudio 1 Tabs
Estudio 17 Tabs
Etude In E Minor Allegro Moderato Tabs
Moderato In A Minor Tabs
Opus 35 Tabs
Opus 35 No 22 In B Minor Tabs
Opus 35 No17 In D Tabs
Study In G Tabs


Song lyrics



↑ Back to top | Tablatures and chords are parodies/interpretations of the original songs. You may use it for private study, scholarship, research or language learning purposes only
© 2014 AZChords.com Contact us | Privacy policy | DMCA | Add/correct tabs | Request tabs | Top 50 tabs