>
 >
Lesson In C

Lesson In C Guitar Tabs

Fernando Sor - Lesson In C chords, tabs, tablatures, lyrics

Guitar lessons | Add/correct | Request | Top 50 tabs Artists:  A B C D E F G H I J K L M N O P Q R S T U V W X Y Z 0-9

Lesson In C Guitar Tabs – Fernando Sor

CD, Sheet music, Poster

Do you like Lesson In C? Share with your friends now
Tabs
E-|---Song:-Lesson-in-C----------------------------|
A-|---Composer:-Fernando-Sor-----------------------|
D-|---Transcription-by:Christian Liang-------------|
E-|---Enjoy!---------------------------------------|


3/4

[1]
E|-----------|--0========|--------0--|--3-p1-----|
B|-----------|--------1--|-----1-----|--------3--|
G|--------0--|-----------|--0--------|-----------|
D|-----------|-----------|--2========|--0========|
A|-----------|--3========|-----------|-----------|
E|-----------|-----------|-----------|-----------|
 |  |  |  |  |  |  |  |  |  |  |  |  |  |  |  |  |

R         i     a     m     i  m  a     a     m
                p           p           p
L               3     1     2  1        4  1  4

[5]
E|-----------|-----------|-----------|-----------|
B|--0========|--------1--|--1--0--1--|--3========|
G|--------0--|--0--------|-----------|-----0--0--|
D|--3========|--2--------|--2--0-----|-----------|
A|-----------|-----------|--------3--|--2========|
E|-----------|-----------|-----------|-----------|
 |  |  |  |  |  |  |  |  |  |  |  |  |  |  |  |  |
R   m     i     i     m     m  m  m     m  i  m
    p           p           p  p  p     p
L   3           2     1     1     1     4
                            2     3     2


[9]
E|-----------|--0========|--------0--|--3-p2--1--|
B|-----------|--------1--|-----1-----|-----------|
G|--0--0--0--|-----------|--0--------|-----------|
D|-----------|-----------|--2========|--0========|
A|-----------|--3========|-----------|-----------|
E|-----------|-----------|-----------|-----------|
 |  |  |  |  |  |  |  |  |  |  |  |  |  |  |  |  |
R   i  m  i     a     m     i  m  a     a     a
                p           p           p

L               3     1     2  1        4  2  1


[13]

E|-----------|--------0--|-----------|--------0--|----------||
B|--3--0-----|--1========|-----3--0--|--1========|--1-------||
G|--------0--|-----0-----|--2-----0--|--------0--|---------*||
D|--3========|--2========|--3========|-----2-----|--2------*||
A|-----------|--------3--|-----------|--3========|--3-------||
E|-----------|-----------|-----------|-----------|----------||
 |  |  |  |  |  |  |  |  |  |  |  |  |  |  |  |  |  |  |  |  |
R   m  m  i     m  i  a     i  m  m     m  p  a     m
    p           p     p     p     i     p     i     i
                                                    p
L   4           1     3     2  4        1  2        1
    3           2           3           3           2
                                                    3
[18]
E|-----------|--1=====1--|--0=====0--|-----------|
B|-----------|-----------|-----------|--3=====3--|
G|--------0--|-----0=====|-----0=====|-----0=====|
D|-----------|--0========|-----------|--3========|
A|-----------|-----------|--3========|-----------|
E|-----------|-----------|-----------|-----------|
 |  |  |  |  |  |  |  |  |  |  |  |  |  |  |  |  |

R         i     a  i  a     a  i  a     m  i  m
                p           p           p
L               1     1     3           4     4
                                        3

[22]

E|-----------|-----------|--------0--|-----------|
B|--1=====1--|--0=====3--|--1========|--3========|
G|-----0=====|-----0=====|-----0=====|-----0--0--|
D|--2========|--0=====3--|--2========|-----------|
A|-----------|-----------|--------3--|--2========|
E|-----------|-----------|-----------|-----------|
 |  |  |  |  |  |  |  |  |  |  |  |  |  |  |  |  |
R   m  i  m     m  i  m     m  i  a     m  i  m
    p           p           p     p     p

L   1     1           4     1     3     4
    2                 3     2           2

[26]

E|-----------|--0========|--------0--|--3-p2--1--|
B|-----------|--------1--|-----1-----|-----------|
G|--0--0--0--|-----------|--0--------|-----------|
D|-----------|-----------|--2========|--0========|
A|-----------|--3========|-----------|-----------|
E|-----------|-----------|-----------|-----------|
 |  |  |  |  |  |  |  |  |  |  |  |  |  |  |  |  |
R   i  m  i     a     m     i  m  a     a     a
                p           p           p
L               3     1     2  1        4  2  1

[30]

E|-----------|-----0-----|-----------|-----------|----------||
B|--3--0-----|--1-----1--|-----3--0--|--1========|----------||
G|--------0--|-----------|--2-----0--|--------0--|---------*||
D|--3========|--2-----2--|--3========|-----2-----|---------*||
A|-----------|-----3-----|-----------|--3--------|--3-------||
E|-----------|-----------|-----------|-----------|----------||
 |  |  |  |  |  |  |  |  |  |  |  |  |  |  |  |  |  |  |  |  |
R   m  m  i     m  a  m     i  m  m     a  i  m     p
    p           p     p     p     i     p
L   4           1  3  1     2  4        1  2        3
    3           2     2     3           3





Comments


Popular Fernando Sor tabs & chords
Allegretto Tabs
E Minor At Midnight Tabs
Easter Hymn Tabs
Estudio 17 Tabs
Etude In E Minor Allegro Moderato Tabs
Moderato In A Minor Tabs
Opus 61 In D Tabs
Study In C Tabs
Study In G Tabs
Waltz Tabs


Song lyrics



↑ Back to top | Tablatures and chords are parodies/interpretations of the original songs. You may use it for private study, scholarship, research or language learning purposes only
© 2014 AZChords.com Contact us | Privacy policy | DMCA | Add/correct tabs | Request tabs | Top 50 tabs