>
 >
Easter Hymn

Easter Hymn Guitar Tabs

Fernando Sor - Easter Hymn chords, tabs, tablatures, lyrics

Guitar lessons | Add/correct | Request | Top 50 tabs Artists:  A B C D E F G H I J K L M N O P Q R S T U V W X Y Z 0-9

Easter Hymn Guitar Tabs – Fernando Sor

CD, Sheet music, Poster

Do you like Easter Hymn? Share with your friends now
Tabs
E-|---Song:-Easter-Hymn----------------------------|
A-|---Composer:-Fernando-Sor-----------------------|
D-|---Transcription-by:Christian Liang-------------|
E-|---Enjoy!---------------------------------------|



AABB-different endings

Part A

[1]

E|------------------------|--------------0---------|
B|----0----0----1----1----|----3========-----------|
G|----0----0---------0----|---------0---------0----|
D|------------------------|------------------------|
A|--------------0========-|----2========-3---------|
E|----3=========----------|------------------------|
 |    |    |    |    |    |    |    |    |    |    |
R     m    m    m    m         m    i    a    i
      i    i    p    i         p         p
      p

L     3         1    1         4         3
                               2

[3]

E|------------------------|------------------------|
B|---------0----1----3----|----0=========----------|
G|----2----0----2---------|----0=========----------|
D|----4--------------4----|-------------------0----|
A|----5=========----------|--------------2---------|
E|------------------------|---------3--------------|
 |    |    |    |    |    |    |    |    |    |    |
R     m    m    m    m         m    p    p    p
      i    i    i    p         i
      p

L     1         1    1              2    1
      3         2    2
      4


[5]

E|------------------------|--------------0========-|
B|----0----0----2----2----|----3========-0========-|
G|----0========-0========-|----2========-0---------|
D|--------------2========-|----4----0--------------|
A|------------------------|------------------------|
E|------------------------|-------------------3----|
 |    |    |    |    |    |    |    |    |    |    |
R     m    m    m    m         m    p    a    p
      i         i              i         m
                p              p         i

L               2    2         2              2
                1              1
                               3


[7]   II                       Ending 1

E|----2---------0---------|------------------------|
B|---------3---------2----|----3-------------------|
G|----2---------0========-|------------------------|
D|---------4--------------|----4----0--------------|
A|----0==================-|----5---------3----0----|
E|------------------------|------------------------|
 |    |    |    |    |    |    |    |    |    |    |
R     a    m    a    m         a    i    p    p
      i    i    i              i
      p                        p

L     1    2         1         1         2
      1    3                   2
                               3


[9]   Ending 2

E|------------------------|
B|----3=========----------|
G|------------------------|
D|----4----0----0----0----|
A|----5-------------------|
E|------------------------|
 |    |    |    |    |    |
R     a    i    i    i
      i
      p

L     1
      2
      3

Part B
[10]

E|--------------0---------|------------------------|
B|----3----3---------0----|----1=========----------|
G|---------4--------------|----2---------2---------|
D|----0========-6========-|---------0----4----0----|
A|------------------------|------------------------|
E|------------------------|------------------------|
 |    |    |    |    |    |    |    |    |    |    |
R     m    m    a    m         m    p    i    p
      p    i    p              i         p

L     1    1    4              1         3
           2                   2         1


[12]

E|------------------------|------------------------|
B|----0----0----1----0----|---------3----2----1----|
G|----0---------2----0----|----2-------------------|
D|---------0--------------|----4=========----------|
A|------------------------|------------------------|
E|------------------------|------------------------|
 |    |    |    |    |    |    |    |    |    |    |
R     m    m    m    m         i    m    i    m
      i    p    i    i         p

L               1              1    2    1    1
                2              3


[14]

E|------------------------|---------0----3---------|
B|----0----0========-0----|----1--------------2----|
G|----0----0========-0----|----0=========-----3----|
D|---------5----4----3----|----2=========-----1----|
A|------------------------|------------------------|
E|------------------------|------------------------|
 |    |    |    |    |    |    |    |    |    |    |
R     m    m    p    m         m    a    a    m
      i    i         i         i              i
           p         p         p              p

L          4    3    2         1         4    2
                               2              3
                                              1

[16]                           Ending 1
E|------------------------|------------------------|
B|----3----0----1---------|-------------------0----|
G|----4----0----2----2----|----0---------0---------|
D|----0=============-4----|---------0--------------|
A|------------------------|------------------------|
E|------------------------|------------------------|
 |    |    |    |    |    |    |    |    |    |    |
R     m    m    m    i         m    i    m    a
      i    i    i    p
      p

L     2         1    2
      3         2    4

[18]  Ending 2
E|------------------------|
B|---------0--------------|
G|----0----0--------------|
D|---------0--------------|
A|------------------------|
E|--------------3========-|
 |    |    |    |    |    |
R     i    m    p
           i
           p

L               3





Comments


Popular Fernando Sor tabs & chords
Estudio 5 Tabs
Estudio 5 In B Minor Tabs
Estudio 6 Tabs
Etude In E Minor Allegro Moderato Tabs
Moderato In C Tabs
Opus 35 No17 In D Tabs
Opus 61 In D Tabs
Sor Op6 No2 Tabs
Study In C Tabs
Three Easy Pieces Tabs


Song lyrics



↑ Back to top | Tablatures and chords are parodies/interpretations of the original songs. You may use it for private study, scholarship, research or language learning purposes only
© 2014 AZChords.com Contact us | Privacy policy | DMCA | Add/correct tabs | Request tabs | Top 50 tabs