» » »

Fernando Sor, Andante Tabs (ver.1)

Artists:  A B C D E F G H I J K L M N O P Q R S T U V W X Y Z # 

Andante Tabs (ver.1)

Fernando Sor Tabs
Rating:
5/5 (2 votes)
Andante lessons Tabs too difficult? Try these video lessons and learn fast
                -----------------------------------------------------------------------------
-----------------------------------------------------------------------------

Tuning:  EADGBe

e|----------------|-------2--|--2---0-----------|--2--|--2--2----2--2-------|
B|--3--3----3--3--|--2-------|---0----3---2--0--|-----|--0------------------|
G|--4--4----4--4--|--4----3--|---0--------------|--3--|----------2----------|
D|----------2-----|----4-----|------------------|--4--|--0-------1----------|
A|--2-------------|----------|------------------|-----|---------------------|
E|----------------|----------|------------------|-----|---------------------|

e|--2--------0----|------0-----------|------------|-------------------------|
B|-------0--------|--3-----3---2--2--|------------|--3--3----3--3-----------|
G|---0------------|--4---------3-----|--4---------|--4--4----4--4-----------|
D|--2----------2--|--4---------4-----|-----4------|-------------------------|
A|----------------|------------------|---------2--|-------------------------|
E|----------------|------------------|------------|-------------------------|

e|--0----2---|--3----3-2-----0---0--|--2----3-----5--|--5--5-----5--5-------|
B|--2----3---|---------------2---2--|--3----5-----7--|--7--7-----7--7-------|
G|--2--------|--0------------2------|----------------|----------------------|
D|-------0---|--2-------------------|--0-------------|--0-----------0-------|
A|-----------|----------------------|----------------|----------------------|
E|-----------|----------------------|----------------|----------------------|

e|----5-------3-----|--2-----3-2---0------|--------------|--2--2-----2--2---|
B|----7---0---5-----|----3-------------2--|--3-----------|--3--3-----3--3---|
G|--0---------------|--2-----------0------|--------------|------------------|
D|---------------2--|---------------------|--4-----------|------------------|
A|------------------|--------------0------|--5---0----5--|------------------|
E|------------------|---------------------|--------------|------------------|

e|--5--------5-----|----5--3------2-----2-|--3--------------|--3--3----3--3-|
B|--5--------5-----|----4--5------5--4----|--5------------0-|--5--3----2--0-|
G|--5--5-----5--5--|--4---------4---------|-----4--0--------|---------------|
D|-----------------|----------------------|------------2----|---------------|
A|-----------------|----------------------|-----------------|---------------|
E|-----------------|----------------------|-----------------|---------------|

e|--3---2-0-----2--|--2--0---0--1--|--2----------------|--------------------|
B|-----------3--2--|--0----4----0--|-------------------|--3--3-------3--3---|
G|--3--------4--2--|--0---------0--|--3----------------|--4--4-------4--4---|
D|-----------------|---------------|--4-----2----------|-------------0--2---|
A|-----------------|---------------|------------5----4-|--2--2--4-----------|
E|-----------------|---------------|-------------------|--------------------|

e|------2-----|--2---0-----------|---------2--------|-------2--2--2---------|
B|--2---------|--0-----3---2--0--|-----2------------|----0------------------|
G|--4---3-----|--0------------0--|--3---------------|-------2--2--2---------|
D|--4------4--|------------------|--4---------4--2--|--1--------------------|
A|------------|------------------|------------------|-----------------------|
E|------------|------------------|------------------|-----------------------|

e|--2--------0------|-----0----------------|---------------|
B|-------0----------|--3-----3-2-------2---|---------------|
G|----0-------------|--4-------4---3-------|--4------------|
D|--2------------2--|--4------4------------|------4--------|
A|------------------|----------------------|------------2--|
E|------------------|----------------------|---------------|

| /  slide up
| \  slide down
| h  hammer-on
| p  pull-off
| ~  vibrato
| +  harmonic
| x  Mute note
=============================================================================
            
Submit corrections

comments powered by Disqus
↑ Back to top | Fernando Sor Tabs for Andante. Lyrics for acoustic guitar and electric guitar. Tablatures and chords are parodies/interpretations of the original songs. You may use it for private study, scholarship, research or language learning purposes only