» » »

Fernando Sor, Allegretto Tabs (ver.1)

Artists:  A B C D E F G H I J K L M N O P Q R S T U V W X Y Z # 

Allegretto Tabs (ver.1)

Fernando Sor Tabs
 Rating:
4/5 (4 votes)
Allegretto lessons Tabs too difficult? Try these video lessons and learn fast
                E-|---Song:-Allegretto-----------------------------|
A-|---Composer:-Fernando-Sor-----------------------|
D-|---Transcription-by:Christian Liang-------------|
E-|---Enjoy!---------------------------------------|

Allegretto by Fernando Sor

Time signature 4/4


[1]

E|--------------|-----0--------|--------------|-----0--------|
B|-----------1--|--------1-----|-----------1--|--------1-----|
G|-----0--------|--0===========|-----0--------|--0===========|
D|--------2-----|--------------|--------2-----|--------------|
A|--3===========|--------------|--3===========|--------------|
E|--------------|--------------|--------------|--------------|
 |  |  |  |  |  |  |  |  |  |  |  |  |  |  |  |  |  |  |  |
L   3     2  1           1        3     2  1           1

R   p  i  p  m     i  a  m        p  i  p  m     i  a  m

[5]

E|-----1--------|-----0--------|-----------0--|--------------|
B|--------3-----|--------1-----|--0--3--1-----|-----0--3-----|
G|--0===========|--0===========|--0===========|--0===========|
D|--------------|--------------|--------------|--------------|
A|--2===========|--3===========|--------------|--------------|
E|--------------|--------------|--------------|--------------|
 |  |  |  |  |  |  |  |  |  |  |  |  |  |  |  |  |  |  |  |  |
L   2  1  4        3     1           4  1              4

R   i  a  m        i  a  m        m  i  m  a     i  m  i
    p              p              i

[9]

E|--------------|-----0--------|--------------|-----0--------|
B|-----------1--|--------1-----|-----------1--|--------1-----|
G|-----0--------|--0===========|-----0--------|--0===========|
D|--------2-----|--------------|--------2-----|--------------|
A|--3===========|--------------|--3===========|--------------|
E|--------------|--------------|--------------|--------------|
 |  |  |  |  |  |  |  |  |  |  |  |  |  |  |  |  |  |  |  |
L   3     2  1           1        3     2  1           1

R   p  i  p  m     i  a  m        p  i  p  m     i  a  m


[13]

E|-----1--------|-----0--------|--------------|--------------|
B|--------3-----|--------1-----|-----3-----0--|--1===========|
G|--0===========|--0===========|--------0-----|-----0--------|
D|--------------|--------------|--3===========|--2===========|
A|--2===========|--3===========|--------------|--------3-----|
E|--------------|--------------|--------------|--------------|
 |  |  |  |  |  |  |  |  |  |  |  |  |  |  |  |  |  |  |  |  |
L   2  1  4        3     1        3  4           1     3
                                                 2
R   i  a  m        i  a  m        p  m  i  m     m  i  p
    p              p                             p

[17]

E|--------------|--------------|--------------|--------------|
B|-----0-----0--|-----1--------|-----0-----0--|-----1--------|
G|--0===========|--2===========|--0===========|--2===========|
D|--------0-----|--------0-----|--------0-----|--------0-----|
A|--------------|--------------|--------------|--------------|
E|--------------|--------------|--------------|--------------|
 |  |  |  |  |  |  |  |  |  |  |  |  |  |  |  |  |  |  |  |
L                  2  1                          2  1

R   i  m  p  m     i  m  p        i  m  p  m     m  i  p

[21]

E|--------------|-----0--------|--------------|--------------|
B|-----0-----3--|--------1-----|-----1--------|--------------|
G|--0===========|-----------2--|--------2-----|--0===========|
D|--------------|--------------|--0========4--|--------------|
A|--------2-----|--3===========|--------------|--------0--2--|
E|--------------|--------------|--------------|-----3--------|
 |  |  |  |  |  |  |  |  |  |  |  |  |  |  |  |  |  |  |  |  |
L         2  4     3     1  2        1  2  4        3     2

R   i  m  p  m     p  a  m  i     p  m  i  p     a  p  p  p


[25]

E|--------------|-----0--------|--------------|-----0--------|
B|-----------1--|--------1-----|-----------1--|--------1-----|
G|-----0--------|--0===========|-----0--------|--0===========|
D|--------2-----|--------------|--------2-----|--------------|
A|--3===========|--------------|--3===========|--------------|
E|--------------|--------------|--------------|--------------|
 |  |  |  |  |  |  |  |  |  |  |  |  |  |  |  |  |  |  |  |
L   3     2  1           1        3     2  1           1

R   p  i  p  m     i  a  m        p  i  p  m     i  a  m


[29]

E|-----1--------|-----0--------|-----------0--|--------------|
B|--------3-----|--------1-----|--0--3--1-----|-----0--3-----|
G|--0===========|--0===========|--0===========|--0===========|
D|--------------|--------------|--------------|--------------|
A|--2===========|--3===========|--------------|--------------|
E|--------------|--------------|--------------|--------------|
 |  |  |  |  |  |  |  |  |  |  |  |  |  |  |  |  |  |  |  |  |
L   2  1  4        3     1           4  1              4

R   i  a  m        i  m  a        m  i  m  a     p  m  i
    p              p              i

[33]

E|--------------|-----0--------|--------------|-----0--------|
B|-----------1--|--------1-----|-----------1--|--------1-----|
G|-----0--------|--0===========|-----0--------|--0===========|
D|--------2-----|--------------|--------2-----|--------------|
A|--3===========|--------------|--3===========|--------------|
E|--------------|--------------|--------------|--------------|
 |  |  |  |  |  |  |  |  |  |  |  |  |  |  |  |  |  |  |  |
L   3     2  1           1        3     2  1           1

R   p  i  p  m     i  a  m        p  i  p  m     i  a  m


[37]

E|-----1--------|-----0--------|--------------|--------------|
B|--------3-----|--------1-----|-----3-----0--|--1===========|
G|--0===========|--0===========|--------0-----|-----0--------|
D|--------------|--------------|--3===========|--2===========|
A|--2===========|--3===========|--------------|--------3-----|
E|--------------|--------------|--------------|--------------|
 |  |  |  |  |  |  |  |  |  |  |  |  |  |  |  |  |  |  |  |  |
L   2  1  4        3     1        3  4           1     3
                                                 2
R   i  a  m        i  a  m        p  m  i  m     m  i  p
    p              p                             p
            
Submit corrections

comments powered by Disqus
↑ Back to top | Fernando Sor Tabs for Allegretto. Lyrics for acoustic guitar and electric guitar. Tablatures and chords are parodies/interpretations of the original songs. You may use it for private study, scholarship, research or language learning purposes only