>
 >
Give Me Jesus

Give Me Jesus Guitar Tabs

Fernando Ortega - Give Me Jesus chords, tabs, tablatures, lyrics

Guitar lessons | Add/correct | Request | Top 50 tabs Artists:  A B C D E F G H I J K L M N O P Q R S T U V W X Y Z 0-9

Give Me Jesus Guitar Tabs – Fernando Ortega

CD, Sheet music, Poster

Do you like Give Me Jesus? Share with your friends now
ChordsTabsUkulele
                                Give Me Jesus
                               Fernando Ortega


Begin: Intro (Instrumental)                                   Tab by VZ
     E  E  E  E  E  E  Q       E  E  E  E  E  E  Q
E||-------------------------|-------------------------|
B||--------1-----------1----|--------1-----------1----|
G||-----0-----------0--0----|-----0-----------0--0----|
D||--3--------2--L-----2----|--3--------2--L-----2----|
A||--3----------------------|--3----------------------|
E||-------------------------|-------------------------|


                            ^    End: Intro    Begin: Verse 1
  E  E  E  E  E  E  Q       W                   Q    Q    E  E  E  E
-------------------------|-------------------|------------------------|
--------1-----------1----|--1----------------|------------------------|
-----0-----------0--0----|--0----------------|-------0----0--0--L-----|
--0--------2--L-----0----|--0----------------|---------------------2--|
-------------------------|-------------------|---------------------3--|
--3----------------------|-------------------|------------------------|


  Q    Q    H           E  E  E  H        E     Q    Q    H
---------------------|-----------------------|---------------------|
---------------------|-----------------------|---------------------|
---------------------|--0--2--L--------------|---------------------|
--L----2----L--------|--2--------------------|---------------------|
--L----2----L--------|-----------3-----------|--0----3----L--------|
-------3----L--------|-----------0--------1--|-------0----L--------|


  Q    E  E  E  E  Q       Q    Q    H           S E.  E  E  H
------------------------|---------------------|-----------------------|
------------------------|---------------------|-----------------------|
------------------------|---------------------|----0------0--L--------|
--2----2--2--L--0-------|---------------------|--2-----2--2--L--------|
----------3--L-----3----|-------0----L--------|--3--------3--L--------|
-------------------1----|--3----3----L--------|-----------------------|


  Q    Q    H           Q    E  E  E  Q    E     Q    Q    H
---------------------|------------------------|---------------------|
---------------------|------------------------|---------------------|
---------------------|--2----2--0--L----------|---------------------|
---------------------|----------2--L--2----L--|-------2----L--------|
-------3----L--------|----------------2----L--|--3----3----L--------|
--3----3----L--------|----------------3----L--|---------------------|


  E  E  E  H        E     Q    E  E  Q    Q       H        S E  E.  E
-----------------------|-----------------------|-----------------------|
-----------------------|-----------------------|-----------------------|
--0--2--L--------------|-----------------------|--------------------0--|
--2-----------------0--|--2----0--L------------|----------------0---0--|
-----------3-----------|--3----------3----L----|--3--------L-----------|
-----------0-----------|-------------3---------|--0--------------------|


           ^ End: V1  Begin: Chorus 1
  H        H           E  E  E  H        E     E  H        E  E  E
--------------------|-----------------------|-----------------------|
-----------1--------|-----------------------|-----------------------|
--L--------0--------|-----0--L--0-----------|--2--L--------0--2--0--|
--L--------0--------|--2--------2--------2--|--2--L-----------------|
--------------------|--------------------2--|--3--L-----------------|
--------------------|--------------------3--|-----------------------|


  H        E  E  E  E     H        E  E  E  E     Q    Q    E  E  Q
--------------------0--|--L--------------------|--0--------------------|
--1--------L--3--1--1--|--L-----------------1--|--1----3----1----------|
--2--------L--2-----0--|--L--------------------|--2----2-------2--L----|
--3--------L--3--------|-----------0--2--L-----|-------3-------2--L----|
-----------------------|-----------------------|---------------3--L----|
-----------------------|-----------------------|-----------------------|


  E  E  H        E  E     E  Q    E  H           Q    E  E  E  E  Q
-----------------------|----------------------|------------------------|
--1--------------------|----------------------|-------------------1----|
-----------------------|----------------------|----------------0--0----|
-----------------0--2--|--L--0----------------|----------2--L-----0----|
-----3--L-----------3--|--L--2----3--L--------|--3----L----------------|
-----0--L--------------|-----3----------------|--0----L----------------|


  ^         End: C1   Begin: Verse 2 & 3
  W                     E  E  Q    E  E  Q       E  E  E  E  Q    Q
-------------------||-------------------------|------------------------|
--1----------------||-------------------------|------------------------|
--0----------------||*--0--0--0----L--2-------|------------------------|
--0----------------||*--------2----L----------|-------------------2----|
-------------------||--------------------3----|--L-----0--L--3---------|
-------------------||--------------------0----|--L--1------------------|


  E  E  Q    E  Q    E     Q    E  E  E  E  Q       E  E  Q    E  E  Q
------------------------|------------------------|------------------------|
------------------------|------------------------|------------------------|
----------------0----0--|--L----------------0----|--0--0--0----L--2-------|
--0----------2-------2--|--L-------------2-------|--------2----L----------|
-----3--L------------3--|--L----0--3--L----------|--------3----L-----3----|
-----0--L---------------|------------------------|-------------------0----|

                                                         End: V2 & 3
  H        E  E  E  E     E  Q    E  H           Q    E  E  Q    Q
-----------------------|----------------------|-----------------------|
-----------------------|----------------------|-----------------------|
-----------------------|----------------------|-----------------------|
-----------------0--2--|--L--0----------------|----------2--L----0----|
--L--------2--L-----3--|--L--2----3--L--------|--3----L--3--L----3----|
--L--------3-----------|-----3----------------|--0----L--0--L----0----|

 Begin: Chorus 2
  E  E  E  H        E     E  H        E  E  E     H        E  E  E  E
-----------------------|-----------------------|--------------------0--|
-----------------------|-----------------------|--1--------L--3--1--1--|
-----0--L--0-----------|--2--L--------0--2--0--|--2--------L--2-----0--|
--2--------2--------2--|--2--L-----------------|--3--------L--3--------|
--------------------2--|--3--L-----------------|-----------------------|
--------------------3--|-----------------------|-----------------------|


  H        E  E  E  E     Q    Q    E  E  Q       E  E  H        E  E
--L--------------------|--0--------------------|-----------------------|
--L-----------------1--|--1----3----1----------|--1--------------------|
--L--------------------|--2----2-------2--L----|-----------------------|
-----------0--2--L-----|-------3-------2--L----|-----------------0--2--|
-----------------------|---------------3--L----|-----3--L-----------3--|
-----------------------|-----------------------|-----0--L--------------|


                                                 ^   End: Chorus 2
  E  Q    E  H           E  H        E  E  E     W
----------------------|-----------------------|-------------------|
----------------------|-----------------------|--1----------------|
----------------------|--------------------0--|--0----------------|
--L--0----------------|--------------2--L-----|--0----------------|
--L--2----3--L--------|--3--L-----------------|-------------------|
-----3----------------|--0--L-----------------|-------------------|


Begin: Bridge (Instrumental)
  E  E  E  E  E  E  Q       E  E  Q    E  E  Q       E  E  Q    E  E  E  E
-------------------------|------------------------|----------------0--------|
-------------------------|-----0--1----L--3--L----|--0--1--3----L-----3--L--|
--0--------L--2--0--L----|--2---------------------|--------0----------------|
--2-----0-----2----------|--------2----L----------|-------------------------|
--3--3--------3----------|--------3----L----------|-------------------------|
-------------------------|------------------------|-------------------------|


  E  E  Q    E  E  E  E     H        E  E  E  E      E  E  E  E  E  E  E  E
--------1----------L--0--|--L--------3--------Lh--|--3--------------------Lh--|
-------------1--3-----3--|--L--------------3------|-----------------1--L------|
--0--L--2-------------0--|--L-----------2---------|-----------2--L--0--L------|
-------------------------|------------------------|-----2--L------------------|
-------------------------|------------------------|-----3--L------------------|
-------------------------|------------------------|---------------------------|


  E  E  E  E  E  E  E  E      E  E  E  E  E  E  E  E
--3--------------------Lh--|--3--------------------Lp--|
-----------0--L--3--L------|-----------------1--3------|
-----------------2--L------|-----------2--L------------|
-----3--L------------------|-----3--L--3--L------------|
-----3--L------------------|---------------------------|
---------------------------|---------------------------|


  Q    E  E  E  E  E  E      Q    E  E  E  E  E  E
--0-------------------Lh--|--------------------------|
--------------------------|--3-------------------Lp--|
----------------0--L------|----------------0--L------|
-------0--2--L------------|----------2--L--0--L------|
--------------------------|-------3------------------|
--------------------------|--------------------------|


                                                       ^  End: Bridge
  Q    E  E  E  E  E  E      Q    E  E  E  E  Q        W
--------------------------|-------------------------|---------------------||
--0-------------------Lh--|--1----------------Lh----|--1------------------||
--------------------------|----------------0--------|--0----------------*-||
----------------0--L------|----------0--L-----------|--0----------------*-||
-------0--3--L------------|-------3--0--L-----------|---------------------||
----------0--L------------|-------------------------|---------------------||


Duration Legend
---------------
W - whole
H - half
Q - quarter
E - 8th
S - 16th
T - 32nd
X - 64th
. - note dotted
|-n-|  - n-tuplets


Tablature Legend
----------------
L - tied note
x - dead note
g - grace note
(n) - ghost note
h - hammer on
p - pull off
b - bend
^ - brush up
v - brush down





Comments


Popular Fernando Ortega tabs & chords
Beyond The Sky Chords
Creation Song Chords
How Deep The Fathers Love For Us Chords
Light Of Heaven Chords
Children Of The Living God Ukulele
Come Ye Sinners Poor And Needy Ukulele
Our Great God Ukulele
Sing To Jesus Ukulele
Sleepless Night Ukulele
When All Thy Mercies Ukulele


Song lyrics



↑ Back to top | Tablatures and chords are parodies/interpretations of the original songs. You may use it for private study, scholarship, research or language learning purposes only
© 2014 AZChords.com Contact us | Privacy policy | DMCA | Add/correct tabs | Request tabs | Top 50 tabs