» » »

Fernando Delgadillo, Visiones Tabs (ver.1)

Artists:  A B C D E F G H I J K L M N O P Q R S T U V W X Y Z # 

Visiones Tabs (ver.1)

Fernando Delgadillo Tabs
Rating:
0/5 (0 votes)
Visiones lessons Tabs too difficult? Try these video lessons and learn fast
                *VISIONES,

basado en los acordes del círculo delgadillo (hoy hace un buen día):

        G... Dadd4... Em7... Cadd9, Dadd9...G
     e---3--|---3---|---3---|--3-----3---|   
     B---3--|---3---|---3---|--3-----3---|
     G------|---2---|-------|--------2---|
     D------|-------|---2---|--2---------|
     A---2--|-------|---2---|--3-----2---|
     E---3--|---2---|-------|------------|


Intro: (1). (2)x2.

Estrofas: (2)sólo la 2a mitad y sin el último 3-0. (3). (4). (5).
          
de nuevo a (2) y así te la llevas toda la canción.   En los coros 
y en la salida puedes usar los acordes y el círculo completos, ya
sea arpegiando o rasgueando, según sientas que conviene.

*parte (1): g
e----------|----------|----------|----------|--------|----------|
B----------|----------|----------|----------|--------|----------|
G----------|----------|----------|----------|--------|----------|
D--------0-|--------0-|--0-0-0-3-|--3-3-3-2-|--2-2-2-|--0-0-0-0-|
A----------|----------|----------|----------|--------|----------|
E-3-3-3-3--|-3-3-3-3--|-3-3-3-3--|-3-3-3-3--|-3-3-3--|-3-3-3-3--|

e----------|-----------|----------|----------|----------|
B----------|-----------|----------|----------|----------|
G----------|-----------|----------|----------|----------|
D--0-0-0-0-|--0-0-0-0--|--3-3-3-3-|--1-1-1-1-|--0-0-0-0-|
A----------|-----------|----------|----------|----------|
E-3-3-3-3--|-3-3-3-3---|-3-3-3-3--|-3-3-3-3--|-3-3-3-3--|

*parte (2): G
e------------|----------|------------|--------------|
B------------|----------|------------|--------------|
G--0-0-0/3-3-|--0-0-3-3-|--0-0-0/3-3-|--0-4-2-0-0-0-|
D------------|----------|------------|--------------|
A------------|----------|------------|--------------|
E-3-3-3---3--|-3-3-3-3--|-3-3-3---3--|-3-3-3-3-3-3--|

*parte (3): D
e----------|----------|
B----------|----0-----|
G--0-2-2-0-|--0---2-0-|
D----------|----------|
A----------|----------|
E-2-2-2-2--|-2-2-2-2--|

*parte (4): e
e----------|----------|
B----------|----0-----|
G--0-2-2-0-|--0---2-0-|
D----------|----------|
A----------|----------|
E-0-0-0-0--|-0-0-0-0--|

*parte (5): C
e----------|------------|
B----------|--3---------|
G--0-2-2-0-|----2-0-0-0-|
D----------|------------|
A-3-3-3-3--|-3-3-3-3-3--|
E----------|------------|

*se que el C no es como en el disco, pero así me salió 
 y de hecho me gustó más.  Haz tu interpretación.
            
Submit corrections

comments powered by Disqus
↑ Back to top | Fernando Delgadillo Tabs for Visiones. Lyrics for acoustic guitar and electric guitar. Tablatures and chords are parodies/interpretations of the original songs. You may use it for private study, scholarship, research or language learning purposes only