» » »

Fernando Delgadillo, Primer Estrella De La Tarde Tabs (ver.1)

Artists:  A B C D E F G H I J K L M N O P Q R S T U V W X Y Z # 

Primer Estrella De La Tarde Tabs (ver.1)

Fernando Delgadillo Tabs
 Rating:
4/5 (4 votes)
Primer Estrella De La Tarde lessons Tabs too difficult? Try these video lessons and learn fast
1
                -------------------------------------------------------------------------------
-------------------------------------------------------------------------------

Capo on 4th

Tuning:E A D G B e
	

Intro  x   2
     G              F#                C               A
e|---------------------------------------------------------------------------|
B|----0---0---0---0---0---0---0---0---0---0---0---0---0---0---0---0----------|
G|---5---5---5---5---5---5---5---5---5---5---5---5---5---5---5---5-----------|
D|--0---0---0---0---0---0---0---0---0---0---0---0---0---0---0---0------------|
A|---------------------------------3---3---3---3---5---5---5---5-------------|
E|-3---3---3---3---2---2---2---2---------------------------------------------|


Verso Tipo 1   Las lunas que sumaban los que miran....
       G               F#              E               F#
e|---------------------------------------------------------------------------|
B|-----0---0---0---0---0---0---0---0---0---0---0---0---0---0---0---0---------|
G|----5---5---5---5---5---5---5---5---5---5---5---5---5---5---5---5----------|
D|---0---0---0---0---0---0---0---0---0---0---0---0---0---0---0---0-----------|
A|---------------------------------------------------------------------------|
E|--3---3---3---3---2---2---2---2---0---0---0---0---2---2---2---2------------|
	
Despues vino el olvido y en su seno...
	Am             F#/D            G       C   B   Am G/Am  F#/D
e|---------------------------------------------------------------------------|
B|-----1---3---1---0---3---1---0---0---0---0---1---1---1---1---3---3---------|
G|----2---2---2---2---2---2---2---2---0---0---0---0---2---2---2---2----------|
D|---2---2---2---2---0---0---0---0---0---0---2---0---2---2---0---0-----------|
A|--0---0---0---0---------------------------3---2---0------------------------|
E|------------------2---2---2---2---3---3---------------3---2---2------------|

Verso Tipo 2	Siguiendo tus pasos pensando en tu obra...
	C               B               Am     G/Am     D#/D
e|---------------------------------------------------------------------------|
B|-----1---3---1---0---3---1---0---0---1---1---1---1---3---1---0---0---------|
G|----0---0---0---0---0---0---0---0---2---2---2---2---2---2---2---2----------|
D|---2---2---2---2---0---0---0---0---2---2---2---2---0---0---0---0-----------|
A|--3---3---3---3---2---2---2---2---0---0------------------------------------|
E|------------------------------------------3---3---2---2---2---2------------|

Reconozco tu mano tras de todo...
	C               B               Am     G/Am     D#/D
e|---------------------------------------------------------------------------|
B|-----1---3---1---0---3---1---0---0---1---1---1---1---3---1---0---0---------|
G|----0---0---0---0---0---0---0---0---2---2---2---2---2---2---2---2----------|
D|---2---2---2---2---0---0---0---0---2---2---2---2---0---0---0---0-----------|
A|--3---3---3---3---2---2---2---2---0---0------------------------------------|
E|------------------------------------------3---3---2---2---2---2------------|

Verso Tipo 1	Mostrabas con tu ciencia la paciencia...
       G               F#              E               F#
e|---------------------------------------------------------------------------|
B|-----0---0---0---0---0---0---0---0---0---0---0---0---0---0---0---0---------|
G|----5---5---5---5---5---5---5---5---5---5---5---5---5---5---5---5----------|
D|---0---0---0---0---0---0---0---0---0---0---0---0---0---0---0---0-----------|
A|---------------------------------------------------------------------------|
E|--3---3---3---3---2---2---2---2---0---0---0---0---2---2---2---2------------|
	
Te despediste de los que te amaban...
	Am             F#/D            G       C   B   Am G/Am  F#/D
e|---------------------------------------------------------------------------|
B|-----1---3---1---0---3---1---0---0---0---0---1---1---1---1---3---3---------|
G|----2---2---2---2---2---2---2---2---0---0---0---0---2---2---2---2----------|
D|---2---2---2---2---0---0---0---0---0---0---2---0---2---2---0---0-----------|
A|--0---0---0---0---------------------------3---2---0------------------------|
E|------------------2---2---2---2---3---3---------------3---2---2------------|

"Coro"
Y prometeme volver...                                 Desde la barca viva...
e|---------------------------------------------------------------------------|
B|-----1---1---1---1---3---1---0---0---0---0---1---1---1---1---3---3---------|
G|----2---2---2---2---2---2---2---2---0---0---0---0---2---2---2---2----------|
D|---2---2---2---2---0---0---0---0---0---0---2---0---2---2---0---0-----------|
A|--0-------0-------------------------------3---2---0------------------------|
E|------0-------0---2---2---2---2---3---3---------------3---2---2------------|


			Y en donde nadie te vio regresar..
e|---------------------------------------------------------------------------|
B|------0---0---1---1---1---1---3---3----------------------------------------|
G|-----0---0---0---0---2---2---2---2-----------------------------------------|
D|----0---0---2---0---2---2---0---0------------------------------------------|
A|-----------3---2---0-------------------------------------------------------|
E|--3---3----------------3---2---2-------------------------------------------|


Outro

Se aparece lucer Quetzalcoatl...
      G        F#     C       A
e|---------------------------------------------------------------------------|
B|----0---0---0---0---0---0---0---0------------------------------------------|
G|---5---5---5---5---5---5---5---5-------------------------------------------|
D|--0---0---0---0---0---0---0---0--------------------------------------------|
A|-----------------3---3---5---5---------------------------------------------|
E|-3---3---2---2-------------------------------------------------------------|



Verso 1

Las lunas que sumaban
Los que miran
Las estrellas hace tiempo
Se dejaron de contar
Después vino el olvido
Y en su seno
Tu nombre aéreo y terreno
Se dejó de pronunciar

Verso 2

Siguiendo tus pasos
Pensando en tu obra
Y entonando la leyenda
Vuelvo a trazar tu perfil
Reconozco tu mano tras de todo
Pero sólo hallé silencio
Cuando pregunté por ti

Verso 1

Mostrabas con tu ciencia
La paciencia
Y cuando llegó la hora de irte
Todos sintieron pesar
Te despediste de los que te amaban
Diciendo que no lloraran
Que jurabas regresar

"Coro"

Y aún prometes volver
Con la primera estrella
Que eres tú al atardecer
Desde la barca viva
De tu exilio, donde el mar
Y en donde nadie te vio regresar

Verso 1

La historia de tu pueblo
Se ha llenado
De dolorosa ignorancia
De tal ausencia de luz
Que aquellos los bellos
Campos floridos
Como ves se han consumido
Porque siempre faltas tú

Verso 2

La obscuridad se ha quedado
De entonces a la fecha
Y ya es la hora
Que no fulge el nuevo sol
Y yo sólo soy otro que ha perdido
En esta noche su camino
Que le lleva a ser mejor

"Coro"

Dónde fuiste a volar
Sabia serpiente
De preciosas plumas de quetzal
Donde el conocimiento te ha llevado
¿Qué hay allá?
Que no te ha permitido regresar

Verso 1

Que acabe aquí
Este pacto con el tiempo
Para el cansado viajero
Que se ha detenido a oír
Las obras de los hombres
Y sus huesos son los únicos
Vestigios de su breve devenir

Verso 2

Bendice mi palabra y sea la tuya
Y flote con hermosas plumas
Que hacen de su ondulación
El vuelo más ligero
En estos tiempos
Estos tiempos de portentos
Para llevar tu canción

Coro

Y prométeme volver
Con la primera estrella
Que eres tú al amanecer
Con el conocimiento
Que un día fue y ahí donde está
Se aparece el lucero Quetzalcoatl

Outro

Se aparece el lucero Quetzalcoatl
Se aparece el lucero Quetzalcoatll-llll-lll
Se aparece el lucer Quetzalcoatl


************************************

| /   slide up
| \   slide down
| h   hammer-on
| p   pull-off
| ~   vibrato
| +   harmonic
| x   Mute note
| b   Bend
| pb  Pre-bend
| br  Bend release
| pbr Pre-bend release
| brb Bend release bend

************************************
            
Submit corrections

comments powered by Disqus
↑ Back to top | Fernando Delgadillo Tabs for Primer Estrella De La Tarde. Lyrics for acoustic guitar and electric guitar. 1 Tablatures and chords are parodies/interpretations of the original songs. You may use it for private study, scholarship, research or language learning purposes only