» » »

Big Girls Dont Cry Tabs (ver.4)

Artists:  A B C D E F G H I J K L M N O P Q R S T U V W X Y Z # 

Big Girls Dont Cry Tabs (ver.4)

Fergie
Rating:
0/5 (0 votes)

Hard to play? Try these video lessons and learn fast.
                
my first submission to any tab site.  This tab / chord chart is an evolution of the one
the chords were in the wrong spot and I don't hear an A minor chord anywhere.  These are
chords I hear and voicings where I could figure them out.
Not a difficult song, but listen carefully for the strumming patterns to be accurate.
do fine with this chart playing solo acoustic guitar with a vocal on top.
Z


Chords Used:
   Em7 C9 G G/F# D
e|--3---3---3----3----x---- /
B|--3---3---3----3----3---- /
G|--0---0---0----0----2---- /
D|--2---2---0----0----0---- /
A|--2---3---2----x----0---- /
E|----------3-----2----x--- /


Tuning: Standard


Intro
e|------------------------------------------------ / / / \
B|--3T-3T-3T-----3T-3T-3-T------------------------ / / /  \
G|---A--A--A-----0A--A--(2)A--|   \ Repeat-------- / x2
D|---P--P--P------P--P----0--P--|  --------------- /
A|--2--3--0----2----3----0---| ------------------- /
E|-------------------------|---------------------- /

Da Da Da Da


Verse 1:
e|----------------------------------------------- / / / \
B|--3T-3T-3T-----3T-3T-3-T----------------------- / / /  \
G|---A--A--A-----0A--A--(2)-A-|   \ Repeat------- / x8
D|---P--P--P------P--P---0--P--|  --------------- /
A|--2--3--0----2----3---0---| ------------------- /
E|-------------------------|--------------------- /

The smell of your skin lingers on me now
Your probably on your flight back to your home town
I need some shelter of my own protection baby
To be with myself instead of calamity


e|-----| \
B|---3--------- / /  \
G|--(2)-------- / /   \ Let it ring
D|---0--|  ---- /
A|--0--|  /
E|-----| /

Peace, Serenity


Chorus:
C9               G            D
I hope you know, I hope you know
D
That this has nothing to do with you
C9               G           D
It's personal, Myself and I
                       Em7                   C9
We've got some straightenin' out to do
                     G                                         D
And I'm gonna miss you like a child misses their blanket
                            Em7
But I've got to get a move on with my life
C9              G             D (let it ring)
It's time to be a big girl now
(Mute)
And big girls don't cry

e|-------------------------------------- / \
B|--3T-3T-3T-----3T-3T-3T--------------- /  \
G|---A--A--A-----0A--A--A--|   \ Repeat- / x2
D|---P--P--P------P--P--P--|  ---------- /
A|--2--3--0----2----3--0---| ----------- /
E|-------------------------|------------ /
Don't cry
Don't cry
Don't cry


Verse 2:
e|-------------------------------------- / \
B|--3T-3T-3T-----3T-3T-3T--------------- /  \
G|---A--A--A-----0A--A--A--|   \ Repeat- / x8
D|---P--P--P------P--P--P--|  ---------- /
A|--2--3--0----2----3--0---| ----------- /
E|-------------------------|------------ /

The path that I'm walking
I must go alone
I must take the baby steps until I'm full grown
Fairytales don't always have a happy ending, do they
And I foresee the dark ahead if I stay


(Repeat Chorus)


Verse 3:
G                              G/F#
Like the little schoolmate in the school yard
C9
We'll play jacks and uno cards
G             G/F#               C9
I'll be your best friend and you'll be mine
C9
Valentine
G                 G/F#                    C9
Yes, you can hold my hand if you want to
                              C9
'Cause I want to hold yours too
 G         G/F#                           C9
We'll be playmates and lovers and share our secret worlds
D        G                      C9
But it's time for me to go home
G/F#
It's getting late, dark outside
C9
I need to be with myself instead of calamity
C9
Peace, Serenity


(Repeat Chorus)


e|-------------------------|
B|--3T-3T-3T-----3T-3T-3T--|
G|---A--A--A-----0A--A--A--|
D|---P--P--P------P--P--P--|
A|--2--3--0----2----3--0---|
E|-------------------------|

La Da Da Da Da Da

e|------------|
B|--3T-3T-3T--|
G|---A--A--A--|
D|---P--P--P--|
A|--2--3--0---|
E|------------|


END
            
Hard to play? Try these video lessons and learn fast. | Correct




comments powered by Disqus
↑ Back to top | Tablatures and chords are parodies/interpretations of the original songs. You may use it for private study, scholarship, research or language learning purposes only