» » »

Fergie, Big Girls Dont Cry Tabs (ver.3)

Artists:  A B C D E F G H I J K L M N O P Q R S T U V W X Y Z # 

Big Girls Dont Cry Tabs (ver.3)

Fergie Tabs
 Rating:
4/5 (4 votes)
Big Girls Dont Cry lessons Tabs too difficult? Try these video lessons and learn fast
1
                Alright now this is my first tab so ive never done this before but i think i can figure 
out so just try this it sounds way good! But keep in mind that the chorus isnt exactly 
but it sounds awesome with the song  anyway.
p.s. i no the verses r right, and bi the way im a 12-year-old guitar genious

verse
e-------------------------------------------------------------------------|
B----3--3--3-------3--3--3---3--3--3-------3--3--3---3--3--3------3--3--3-|
G----0--0--2-------0--0--2---0--0--2-------0--0--2---0--0--2------0--0--2-|
D----------0-------------0---------0-------------0---------0------------0-|
A----2--3------0h2-2--3------2--3------0h2-2--3------2--3-----0h2-2--3----|
E-------------------------------------------------------------------------|

e---------------------------------------------------------------------------|
B---3--3--3-------3--3--3---3--3--3-------3--3------------------------------|
G---0--0--2-------0--0--2---2--0--2-------0--0------------------------------|
D---------0-------------0---------0-----------------------------------------|
A---2--3------0h2-2--3------0--3------0h2-2--3------------------------------|
E---------------------------------------------------------------------------|


chorus
e---3333-333-3333-333-3333-333-3333-333--3333-333-3333-333-3333-333-3333-333-|
B---3333-333-3333-333-3333-333-3333-333--3333-333-3333-333-3333-333-3333-333-|
G---0000-000-0000-000-2222-222-2222-222--0000-000-0000-000-2222-222-2222-222-|
D---2222-222-0000-000-0000-000-0000-000--2222-222-0000-000-0000-000-0000-000-|
A---3333-333-2222-222-0000-000-0000-000--3333-333-2222-222-0000-000-0000-000-|
E----------------------------------------------------------------------------|

e--3333-333-3333-333-3333-333-3333-333--3333-333-3333-333-3-----------------|
B--3333-333-3333-333-3333-333-3333-333--3333-333-3333-333-3-----------------|
G--0000-000-0000-000-2222-222-2222-222--0000-000-0000-000-2-----------------|
D--2222-222-0000-000-0000-000-0000-000--2222-222-2222-222-0-----------------|
A--3333-333-2222-222-0000-000-0000-000--3333-333-3333-333-0-----------------|
E---------------------------------------------------------------------------|

(play verse 2 here)


(play chorus here)

slightly different verse 3
e---------------------------------------------------------------------------|
B---3---3---3---3---3---3---3---3---3---3---3---3---3---3---3---3-----------|
G---0---0---2---2---0---0---2---2---0---0---2---2---0---0---2---2-----------|
D-----------0---0-----------0---0-----------0---0-----------0---0-----------|
A---2---3-----------2---3-----------2---3-----------2---3-------------------|
E---------------------------------------------------------------------------|

e---------------------------------------------------------------------------|
B---3-----3-----3-----3-----3-----3-----3-----------------------------------|
G---0-----0-----0-----0-----0-----0-----0-----------------------------------|
D---------------------------------------------------------------------------|
A---3-----2-----3-----2-----3-----2-----3-----------------------------------|
E---------------------------------------------------------------------------|

(play chorus here)


e---------------------------------------------------------------------------|
B---3--3--3------3--3--3---3--3--3------3--3--3---3--3--3-------------------|
G---0--0--2------0--0--2---0--0--2------0--0--2---0--0--2-------------------|
D---------0------------0---------0------------0---------0-------------------|
A---2--3-----0h2-2--3------2--3-----0h2-2--3------2--3----------------------|
E---------------------------------------------------------------------------|

hey thanx 4 lookin at my tab! note: u will have to listen to the song to get the timing 
right. laterz
            
Submit corrections

comments powered by Disqus
↑ Back to top | Fergie Tabs for Big Girls Dont Cry. Lyrics for acoustic guitar and electric guitar. 1 Tablatures and chords are parodies/interpretations of the original songs. You may use it for private study, scholarship, research or language learning purposes only