» » »

Ferdinando Carulli, Waltz In D Tabs (ver.1)

Artists:  A B C D E F G H I J K L M N O P Q R S T U V W X Y Z # 

Waltz In D Tabs (ver.1)

Ferdinando Carulli Tabs
 Rating:
4/5 (4 votes)
Waltz In D lessons Tabs too difficult? Try these video lessons and learn fast
                E-|---Song:-Waltz-in-D-----------------------------|
D-|---Transcription-by:Christian Liang-------------|
E-|---Enjoy!---------------------------------------|


Waltz in D by Ferdinando Carulli (1770-1841)
Grade 1- Early Intermediate



Part A

[1]

E|-------------------|-------------------|-------0-----------|-------------------|
B|-0-----0-----1-----|-------3-----------|-------------------|-------3-----------|
G|-0-----0-----2-----|-------------0-----|-------------0-----|-------------0-----|
D|-------------------|-------------------|-------------------|-------------------|
A|-------------------|-2================-|-3================-|-2================-|
E|-------------------|-------------------|-------------------|-------------------|

R  m     m     m       p     m     i       p     a     i       p     m     i
   i     i     i

L              1       2     4             3                   2     4 
               2
 
[5]

E|-------------------|-------------------|-------------------|------------------||
B|-0-----0-----1-----|-------3-----------|-------1-----------|------------------||
G|-0-----0-----2-----|-------------0-----|-------------2-----|-0===============*||
D|-------------------|-------------------|-0================-|-----------------*||
A|-------------------|-2================-|-------------------|------------------||
E|-------------------|-------------------|-------------------|-3===============-||

R  m     m     m       p     m     i       p     m     i       i
   i     i     i                                               p

L              1       2     4                   1     2       3
               2

Part B

[9]

E|-------2-----------|-------3-----------|-------------------|-------------------|
B|-------------1-----|-------------0-----|-------1-----------|-------0-----------|
G|-------------------|-------------------|-------------2-----|-------------0-----|
D|-0================-|-0================-|-0================-|-0================-|
A|-------------------|-------------------|-------------------|-------------------|
E|-------------------|-------------------|-------------------|-------------------|

R  p     m     i       p     m     i       p     m     i       p     m     i     
L        3     1             3                   1     2 

[13]

E|--------2----------|-------3-----------|-------------------|------------------||
B|-------------1-----|-------------0-----|-------1-----------|------------------||
G|-------------------|-------------------|-------------2-----|-0===============*||
D|-0================-|-0================-|-0================-|-----------------*||
A|-------------------|-------------------|-------------------|------------------||
E|-------------------|-------------------|-------------------|-3===============-||

R  p     m     i       p     m     i       p     m     i       i
							       p
     
L        3     1             3                   1     2       3

Part C

[17]

E|-------0-----------|-------0-----------|-------2-----------|-------3-----------|
B|-------------0-----|-------------0-----|-------------0-----|-------------0-----|
G|-------------------|-0================-|-------------------|-------------------|
D|-2================-|-------------------|-1================-|-2================-|
A|-------------------|-------------------|-------------------|-------------------|
E|-------------------|-------------------|-------------------|-------------------|

R  p     m     i       p     m     i       p     m     i       p     i     m
L  2                                       1     3             2     4

[21]

E|-------0-----------|-------0-----------|-------2-----------|-0===============-||
B|-------------0-----|-------------0-----|-------------0-----|------------------||
G|-------------------|-0================-|-------------------|-----------------*||
D|-2================-|-------------------|-1================-|-2===============*||
A|-------------------|-------------------|-------------------|------------------||
E|-------------------|-------------------|-------------------|------------------||

R  p     m     i       p     m     i       p     m     i       m
							       p
     
L  2                                       1     3             2     

Part D

[25]

E|-------------------|-------0-----------|-------2-----------|-------3-----------|
B|-------4-----------|-------------0-----|-------------0-----|-------------0-----|
G|-------------2-----|-0================-|-------------------|-------------------|
D|-4================-|-------------------|-1================-|-2================-|
A|-------------------|-------------------|-------------------|-------------------|
E|-------------------|-------------------|-------------------|-------------------|
 
R  p     m     i       p     m     i       p     m     i       p     m     i
L  3     4     1                           1     3             2     4

[29]

E|-------------------|-------0-----------|-------2-----------|-0-==============-||
B|-------4-----------|-------------0-----|-------------0-----|------------------||
G|-------------2-----|-0================-|-------------------|-----------------*||
D|-4================-|-------------------|-1================-|-2===============*||
A|-------------------|-------------------|-------------------|------------------||
E|-------------------|-------------------|-------------------|------------------||
 
R  p     m     i       p     m     i       p     m     i       m
   							       p

L  3     4     1                           1     3             2   
            
Submit corrections

comments powered by Disqus
↑ Back to top | Ferdinando Carulli Tabs for Waltz In D. Lyrics for acoustic guitar and electric guitar. Tablatures and chords are parodies/interpretations of the original songs. You may use it for private study, scholarship, research or language learning purposes only