» » »

Ferdinando Carulli, Study In G Tabs (ver.1)

Artists:  A B C D E F G H I J K L M N O P Q R S T U V W X Y Z # 

Study In G Tabs (ver.1)

Ferdinando Carulli Tabs
Rating:
0/5 (0 votes)
Study In G lessons Tabs too difficult? Try these video lessons and learn fast
                Tuning: Standard
Thanks    


                                                                  
E||---------------|--------------|--------------|--------------|--------------|
B||---0-----0-----|--1-----1-----|--0-----1--0--|--------3-----|--0-----0-----|
G||*--0-----0-----|--2-----2-----|--0-----------|--2-----------|--0-----0-----|
D||*-----0-----0--|-----0-----0--|-----0--------|-----0-----0--|-----0-----0--|
A||---------------|--------------|--------------|--------------|--------------|
E||---------------|--------------|--------------|--------------|--------------|

                                                                           
E|--------------|--------------|------------||---2-----2-----|--3-----------|
B|--1-----1-----|--0-----1-----|------------||---1-----1-----|--0-----0-----|
G|--2-----2-----|--0--------2--|--0--------*||*--------------|--------0-----|
D|-----0-----0--|-----0--------|-----------*||*-----0-----0--|-----0-----0--|
A|--------------|--------------|------------||---------------|--------------|
E|--------------|--------------|--3---------||---------------|--------------|

                                                                           
E|--------0-----|--------------|--2-----2-----|--3-----------|--------0-----|
B|--1--------3--|--0-----------|--1-----1-----|--0-----0-----|--1--------3--|
G|--2-----------|--------0-----|--------------|--------0-----|--2-----------|
D|-----0--------|-----0-----0--|-----0-----0--|-----0-----0--|-----0--------|
A|--------------|--------------|--------------|--------------|--------------|
E|--------------|--------------|--------------|--------------|--------------|

                                                                           
E|------------||------------0--|-----------0--|-----2-----2--|-----3-----0--|
B|--0---------||---------0-----|--------0-----|-----0-----0--|-----0-----0--|
G|-----------*||*-----0--------|-----0--------|--------------|--------------|
D|-----------*||*--2-----------|--2-----------|--1-----1-----|--2-----2-----|
A|------------||---------------|--------------|--------------|--------------|
E|--3---------||---------------|--------------|--------------|--------------|

                                                                          
E|--------------|--------------|-----2-----2--|--0---------||--------------|
B|-----0-----0--|-----0-----0--|-----0-----0--|------------||--0-----0-----|
G|--2-----2-----|--0-----------|--------------|-----------*||--0-----0-----|
D|--------------|--------2-----|--1-----1-----|--2--------*||-----0-----0--|
A|--------------|--------------|--------------|------------||--------------|
E|--------------|--------------|--------------|------------||--------------|

                                                                           
E|--------------|--------------|--------------|--------------|--------------|
B|--1-----1-----|--0-----1--0--|--------3-----|--0-----0-----|--1-----1-----|
G|--2-----2-----|--0-----------|--2-----------|--0-----0-----|--2-----2-----|
D|-----0-----0--|-----0--------|-----0-----0--|-----0-----0--|-----0-----0--|
A|--------------|--------------|--------------|--------------|--------------|
E|--------------|--------------|--------------|--------------|--------------|

                                                                        
E|--------------|-----------|--2-----2-----|--3-----------|--------0-----|
B|--0-----1-----|-----------|--1-----1-----|--0-----0-----|--1--------3--|
G|--0--------2--|--0--------|--------------|--------0-----|--2-----------|
D|-----0--------|-----------|-----0-----0--|-----0-----0--|-----0--------|
A|--------------|-----------|--------------|--------------|--------------|
E|--------------|--3--------|--------------|--------------|--------------|

                                                                         
E|--------------|--2-----2-----|--3-----------|--------0-----|-----------||
B|--0-----------|--1-----1-----|--0-----0-----|--1--------3--|--0--------||
G|--------0-----|--------------|--------0-----|--2-----------|-----------||
D|-----0-----0--|-----0-----0--|-----0-----0--|-----0--------|-----------||
A|--------------|--------------|--------------|--------------|-----------||
E|--------------|--------------|--------------|--------------|--3--------||
            

comments powered by Disqus
↑ Back to top | Ferdinando Carulli Tabs for Study In G. Lyrics for acoustic guitar and electric guitar. Tablatures and chords are parodies/interpretations of the original songs. You may use it for private study, scholarship, research or language learning purposes only