>
 >
Andante 1

Andante 1 Guitar Tabs

Ferdinando Carulli - Andante 1 chords, tabs, tablatures, lyrics

Guitar lessons | Add/correct | Request | Top 50 tabs Artists:  A B C D E F G H I J K L M N O P Q R S T U V W X Y Z 0-9

Andante 1 Guitar Tabs – Ferdinando Carulli

CD, Sheet music, Poster

Do you like Andante 1? Share with your friends now
TabsTabs v2
Ferdinando Carulli - Andante

Enjoy!

e------------|-0-----0------1------1-----|-0-------0------------------|
B----0--1--3-|-1-----1------3------3-----|-1-------1-------3--1--0----|
G-2----------|---------------------------|--------------------------2-|
D------------|---------------------------|----------------------------|
A------------|----0------0-----0-------0-|-----0-------0--------------|
E------------|---------------------------|----------------------------|

e-------------------------------|----------------------------|
B-0-----0------3---------3------|-1------1-----------0--1--3-|
G-1-----1------4---------4------|-2------2-------2-----------|
D-------------------------------|----------------------------|
A-------------------------------|----0-------0---------------|
E----0------0-------0---------0-|----------------------------|

e-0-----0-------1-------1-|-0-----0------1--0-------|-3p1--0-------------|
B-1-----1-------3-------3-|-1-----1------------3--1-|--------3-1p0-------|
G-------------------------|-------------------------|---------------2--1-|
D-------------------------|-------------------------|-0------------------|
A----0------0-------0-----|----0------0-------------|--------------------|
E-------------------------|-------------------------|----------0---------|

e----------0----0-|---------------------------|---------------0----0-|
B--------4----4---|-0-----0------3------3-----|-1-----1-----4----4---|
G-2---------------|-1-----1------4------4-----|-2-----2--------------|
D-----------------|---------------------------|----------------------|
A-0---------------|---------------------------|----0-----0-----------|
E-----------------|----0------0------0------0-|----------------------|

e-1------0-----------------|----------------0----0-|-----------------------|
B-3------1------3-----1----|-1-----0------4----4---|-0-----0-----3-----3---|
G---------------4-----2----|-2-----1---------------|-1-----1-----4-----4---|
D--------------------------|-----------------------|-----------------------|
A----0------0------0-----0-|-----------------------|-----------------------|
E--------------------------|----0-----0------------|----0-----0-----0----0-|

e----------------0----0-|----1------0-----------------|-0-----------------|
B-1----1------4----4----|----3------1------3--------2-|-0---------0--1--3-|
G-2----2----------------|------------------4--------1-|-1-------2---------|
D-----------------------|-0-----0------0--------1-----|-2-----------------|
A---0-----0-------------|-----------------------------|-------------------|
E-----------------------|-----------------------------|-------------------|

e-0-----0------1-------1-----|-0-----0------------------|-----------------|
B-1-----1------3-------3-----|-1-----1-------3--1--0----|-0---0----3---3--|
G----------------------------|------------------------2-|-1---1----4---4--|
D----------------------------|--------------------------|-----------------|
A----0------0------0-------0-|----0------0--------------|-----------------|
E----------------------------|--------------------------|---0---0---0---0-|

e-------------------------|-0-----0------1-----1----|-0-----0-----1--0-----|
B-1-----1---------0--1--3-|-1-----1------3-----3----|-1-----1----------3-1-|
G-2-----2------2----------|-------------------------|----------------------|
D-------------------------|-------------------------|----------------------|
A----0-----0--------------|----0------0-----0-----0-|----0-----0-----------|
E-------------------------|-------------------------|----------------------|

e-3p1--0---------------|----|
B---------3--1p0-------|----|
G-----------------2--1-|--2-|
D-0--------------------|----|
A----------------------|--0-|
E------------0---------|----|

Thats it!





Comments


Popular Ferdinando Carulli tabs & chords
Andante Tabs
Andantino 1 Tabs
Country Dance Tabs
Op 76 No 2 Tabs
Prelude Tabs
Study Tabs
Study In G Tabs
Valse Tabs
Waltz In D Tabs
Waltz In D 1 Tabs


Song lyrics



↑ Back to top | Tablatures and chords are parodies/interpretations of the original songs. You may use it for private study, scholarship, research or language learning purposes only
© 2014 AZChords.com Contact us | Privacy policy | DMCA | Add/correct tabs | Request tabs | Top 50 tabs