>
 >
Telefonication

Telefonication Guitar Tabs

Fenix Tx - Telefonication chords, tabs, tablatures, lyrics

Guitar lessons | Add/correct | Request | Top 50 tabs Artists:  A B C D E F G H I J K L M N O P Q R S T U V W X Y Z 0-9

Telefonication Guitar Tabs – Fenix Tx

CD, Sheet music, Poster

Do you like Telefonication? Share with your friends now
Tabs
Artist - Fenix Tx
Song - Telefonication	

This is my favourite song by Fenix Tx but i could never find a tab for it, because
im not sure which album its off so i spent a while sussing it out and came up with this.
It is played with two guitars so may sound off with just one.

Intro
Guitar.1.
                                                    Repeat 7 times
|-----------------------------------------------------------------|
|-----------------------------------------------------------------|
|--------9--------------------------------------------------------|
|---7--7---7--------9---9----------10-----------7---7-------------|
|-----------------7---7-------8--8----8-------5---5---------------|
|-----------------------------------------------------------------|
    <-----------------------P.M---------------------->


Guitar.2. comes in after first repeat.  repeat small riff once
|---------------------------------------|---------------------|
|---------------------------------------|---------------------|(For the last 
|-2hold then/9---9h10--12-12-12-12-10-9-|-9h10p9\7---7/9\7/9--| part of this riff
|---------------------------------------|---------------------| you can hammer on
|---------------------------------------|---------------------| and pull off the
|---------------------------------------|---------------------| 7/9\7/9 for ease)
                                         

Guitar.2. continued, keep playing over guitar.1.

|----------------------------------------|----------------------------------------|
|----------------------------------------|----------------------------------------|
|-9h10p9\7---7h9p7\5---5h7p5\4---4h5p4\2-|-9h10p9\7--7/9\7/9--9h10p9-10h12p10-9-10|
|----------------------------------------|----------------------------------------|
|----------------------------------------|----------------------------------------|
|----------------------------------------|----------------------------------------|

|----------------------------------------|
|----------------------------------------|
|-9h10p9\7---7h9p7\5---5h7p5\4---4h5p4\2-|
|----------------------------------------|
|----------------------------------------|
|----------------------------------------|




Pre verse.
Both guitars play chords. twice over together
                                             
|---------------------------------------------------------------------|
|---------------------------------------------------------------------|
|-------------------4-4---4-4-4--4----------------------5-5--5-5-5--5-|
|-5-5---5-5-5--5----4-4---4-4-4--4----2-2---2-2-2--2----5-5--5-5-5--5-|
|-5-5---5-5-5--5----2-2---2-2-2--2----2-2---2-2-2--2----3-3--3-3-3--3-|
|-3-3---3-3-3--3----------------------0-0---0-0-0--0------------------|
Guitar.1.continues the above 2 more times,


 guitar.2.strums riff below.                                          Repeat once
|--------------------------------------------------------------------------------| 
|--------------------------------------------------------------------------------|
|-/12-12---12-12-12--12--11-11--11-11-11-11--9-9--9-9-9--9---12-12--12-12-12--12-|
|-/x--x----x--x--x---x----x--x---x--x--x--x--x-x--x-x-x--x---x--x---x--x--x---x--|
|-/10-10---10-10-10--10---9--9---9--9--9--9--7-7--7-7-7--7---10-10--10-10-10--10-|
|--------------------------------------------------------------------------------|

Guitar.2.plays this insanely fast four times.
|--------------------------|
|--------------------------|
|--------12-------12----12-|
|--------------------------|
|--10-10----10-10----10----|
|--------------------------|
   <--------P.M---------->


Verse.
Both guitars play twice over together
|---------------------------------------------------------------------|
|---------------------------------------------------------------------|
|-------------------4-4---4-4-4--4----------------------5-5--5-5-5--5-|
|-5-5---5-5-5--5----4-4---4-4-4--4----2-2---2-2-2--2----5-5--5-5-5--5-|
|-5-5---5-5-5--5----2-2---2-2-2--2----2-2---2-2-2--2----3-3--3-3-3--3-|
|-3-3---3-3-3--3----------------------0-0---0-0-0--0------------------|
Guitar.1. continues the above two more times


Guitar.2. strums this over the top after playing chords twice.       Repeat once.
|--------------------------------------------------------------------------------| 
|--------------------------------------------------------------------------------|
|-/12-12---12-12-12--12--11-11--11-11-11-11--9-9--9-9-9--9---12-12--12-12-12--12-|
|-/x--x----x--x--x---x----x--x---x--x--x--x--x-x--x-x-x--x---x--x---x--x--x---x--|
|-/10-10---10-10-10--10---9--9---9--9--9--9--7-7--7-7-7--7---10-10--10-10-10--10-|
|--------------------------------------------------------------------------------|



Chorus.
Both guitars play chorus                   Rpt 3 times   (Play this at the end of
|--------------------------------------------------------|-----------| the 3rd time)
|--------------------------------------------------------|-----------|
|------------------7--x--9-7--x--5-5-5-5-5-5-5-5-5-5-5-5-|-5/7-7-7-5-| 
|-5--x--5---5-5-5--7--x--9-7--x--5-5-5-5-5-5-5-5-5-5-5-5-|-5/7-7-7-5-|
|-5--x--5---5-5-5--5--x--7-5--x--3-3-3-3-3-3-3-3-3-3-3-3-|-3/5-5-5-3-|
|-3--x--3---3-3-3----------------------------------------|-----------|

Guitar.2.plays this again, insanely fast four times.
|--------------------------|
|--------------------------|
|--------12-------12----12-|
|--------------------------|
|--10-10----10-10----10----|
|--------------------------|
   <--------P.M---------->

Then play second Verse.


Then Chorus again.


OUTRO.
Then guitar.1.plays the intro riff again

 Guitar.1.                                          Repeat 7 times
|-----------------------------------------------------------------|
|-----------------------------------------------------------------|
|--------9--------------------------------------------------------|
|---7--7---7--------9---9----------10-----------7---7-------------|
|-----------------7---7-------8--8----8-------5---5---------------|
|-----------------------------------------------------------------|
    <----------------------P.M---------------------->

Guitar.2.
|-----------------------------------------|----------------------------------------|
|-----------------------------------------|----------------------------------------|
|-9h10p9\7---7/9\7/9---9h10p9\7---7/9\7/9-|-9h10p9\7---7h9p7\5---5h7p5\4---4h5p4\2-|
|-----------------------------------------|----------------------------------------|
|-----------------------------------------|----------------------------------------|
|-----------------------------------------|----------------------------------------|

|---------------------------------------------------------------------------------|
|---------------------------------------------------------------------------------|
|-2h4/5---4h5/7---5h7/9---7h9/10---9h10--12-12p10-9-9-----------------------------|
|---------------------------------------------------------------------------------|
|---------------------------------------------------------------------------------|
|---------------------------------------------------------------------------------|

This riff kinda waffles on round the same kinda pattern but i couldnt be arsed 2tab it all cos you just improvise :-) have fun and let me know if you got any corecctions...





Comments


Popular Fenix Tx tabs & chords
No Lie Bass Tabs
Phoebe Cates Bass Tabs
Threesome Bass Tabs
A Song For Everyone Tabs
A Song For Everyone 1 Tabs
Flight 601 ( All I've Got Is Time) Tabs
Jolly Green Dumb Ass Tabs
Jolly Green Dumbass 1 Tabs
Oblique 1 Tabs
Surf Song 2 Tabs


Song lyrics



↑ Back to top | Tablatures and chords are parodies/interpretations of the original songs. You may use it for private study, scholarship, research or language learning purposes only
© 2014 AZChords.com Contact us | Privacy policy | DMCA | Add/correct tabs | Request tabs | Top 50 tabs