>
 >
Tearjerker 3

Tearjerker 3 Guitar Tabs

Fenix Tx - Tearjerker 3 chords, tabs, tablatures, lyrics

Guitar lessons | Add/correct | Request | Top 50 tabs Artists:  A B C D E F G H I J K L M N O P Q R S T U V W X Y Z 0-9

Tearjerker 3 Guitar Tabs – Fenix Tx

CD, Sheet music, Poster

Do you like Tearjerker 3? Share with your friends now
ChordsTabsTabs v2Tabs v3Ukulele
Tearjerker Acoustic by Fenix TX
(as they played it @ Clubhouse Music Venue)

I've seen this video for many times and I think it's just amazing how the guys played 
song acoustic. I haven't found any tabs for it so I decided to do my own. I beleive it's 
correct. Enjoy it!


Guitar is tuned down 1/2 step!


Intro Guitar I. - Played by Chris

D#|----------------------------------------------------|
A#|----------------------------------------------------|
F#|--14-14-14--11-11-11--12-12-12--11-11-11--9--11--7--|
C#|---0--0--0--0---0--0---0--0--0---0--0--0--0---0--0--|
G#|----------------------------------------------------|
D#|----------------------------------------------------| X8

Intro Guitar II. - Played by Will

D#|-----------------------|
A#|-----------------------|
F#|--767676-------111111--|
C#|--777775--9999-111111--|
G#|--555557--9999-9-9-9---|
D#|----------7777-7-7-7---| x4

Verse

D#|------------------------|
A#|------------------------|
F#|--77777777--444444-4/6--|
C#|--77777777--444444-x/x--|
G#|--55555555--222222-2/4--|
D#|------------------------|

D#|----------------------|
A#|----------------------|
F#|--77777777--44444444--|
C#|--77777777--44444444--|
G#|--55555555--22222222--|
D#|----------------------|

Intro

D#|-----------------------|
A#|-----------------------|
F#|--767676-------111111--|
C#|--777775--9999-111111--|
G#|--555557--9999-9-9-9---|
D#|----------7777-7-7-7---| x2

Verse

D#|------------------------|
A#|------------------------|
F#|--77777777--444444-4/6--|
C#|--77777777--444444-x/x--|
G#|--55555555--222222-2/4--|
D#|------------------------|

D#|----------------------|
A#|----------------------|
F#|--77777777--44444444--|
C#|--77777777--44444444--|
G#|--55555555--22222222--|
D#|----------------------|

Chorus

D#|----------------------|
A#|----------------------|
F#|------------44444444--|
C#|--55555555--44444444--|
G#|--55555555--22222222--|
D#|--33333333------------|

D#|----------------------|
A#|----------------------|
F#|----------------------|
C#|--55555555--77777777--|
G#|--55555555--77777777--|
D#|--33333333--55555555--|

Intro

D#|-----------------------|
A#|-----------------------|
F#|--767676-------111111--|
C#|--777775--9999-111111--|
G#|--555557--9999-9-9-9---|
D#|----------7777-7-7-7---| x3

D#|--------------------------------------|
A#|--------------------------------------|
F#|--7/999--9/111111--11/9-------111111--|
C#|--x/xxx--x/x-x-x---x-/x--9999-111111--|
G#|--5/777--7/9-9-9---9-/7--9999-9-9-9---|
D#|-------------------------7777-7-7-7---|

Verse

D#|------------------------|
A#|------------------------|
F#|--77777777--444444-4/6--|
C#|--77777777--444444-x/x--|
G#|--55555555--222222-2/4--|
D#|------------------------|

D#|----------------------|
A#|----------------------|
F#|--77777777--44444444--|
C#|--77777777--44444444--|
G#|--55555555--22222222--|
D#|----------------------|

Chorus

D#|----------------------|
A#|----------------------|
F#|------------44444444--|
C#|--55555555--44444444--|
G#|--55555555--22222222--|
D#|--33333333------------|

D#|----------------------|
A#|----------------------|
F#|----------------------|
C#|--55555555--77777777--|
G#|--55555555--77777777--|
D#|--33333333--55555555--|

D#|------------------|
A#|------------------|
F#|--777777--444444--|
C#|--777777--444444--|
G#|--555555--222222--|
D#|------------------| x2

D#|----------------------|
A#|----------------------|
F#|----------------------|
C#|--55555555--77777777--|
G#|--55555555--77777777--|
D#|--33333333--55555555--|

Intro

D#|-----------------------|
A#|-----------------------|
F#|--767676-------111111--|
C#|--777775--9999-111111--|
G#|--555557--9999-9-9-9---|
D#|----------7777-7-7-7---| x4

Outro

D#|-----------------------------|
A#|-----------------------------|
F#|--777/99999--999/1111111111--|
C#|--xxx/xxxxx--xxx/x-x-x-x-x---|
G#|--555/77777--777/9-9-9-9-9---|
D#|-----------------------------| x2

End on

D#|-----|
A#|-----|
F#|--7--|
C#|--x--|
G#|--5--|
D#|-----|





Comments


Popular Fenix Tx tabs & chords
A Song For Everyone 2 Bass Tabs
Abba Zabba Bass Tabs
El Borracho 1 Bass Tabs
Flight601 All Got Is Time Bass Tabs
Ben Tabs
Flight 601solo Perfect Tabs
Katie W. Tabs
Minimum Wage 2 Tabs
Something Bad Is Gonna Happen 1 Tabs
Speechless 1 Tabs


Song lyrics



↑ Back to top | Tablatures and chords are parodies/interpretations of the original songs. You may use it for private study, scholarship, research or language learning purposes only
© 2014 AZChords.com Contact us | Privacy policy | DMCA | Add/correct tabs | Request tabs | Top 50 tabs