» » »

Surfsong Bass tabs (ver.1)

Artists:  A B C D E F G H I J K L M N O P Q R S T U V W X Y Z # 

Surfsong Bass tabs (ver.1)

Fenix Tx
Rating:
0/5 (0 votes)

Hard to play? Try these video lessons and learn fast.
                :
# intro #    #=play 5-6x
G:|----------------------------------------------------|
D:|---------------#-------------------------------#----|
A:|--#-----#----/7-----00224420-#-----#-----#----2-----|
E:|-0-----5--------------------0-----5-----2-----------|
:
# verse #    *=play 8x  x=play 12x
G:|----------------------------------------------------|
D:|---------------*-------------------------------*----|
A:|--*-----*----/7-----00224420-*-----*-----*----2-----|
E:|-0-----5--------------------0-----5-----2-----------|
:
G:|----------------------------------------------------|
D:|---------------*-------------------------------x----|
A:|--*-----*----/7-----00224420-*-----*-----*----2-----|
E:|-0-----5--------------------0-----5-----2-----------|
:
# chorus #
G:|----------------------------------------------------------------|
D:|------------------------------#---------------------------------|
A:|--#---#---x-----#---#---x----7----#---x-----#---#---*----#------|
E:|-0---7---5-----0---7---5---------7---5-----0---7---5----0---77--|
:
Then play intro 1x, verse 1x.
:
# chorus2 #
G:|-------------------------------------------------------------|
D:|------------------------------#------------------------------|
A:|--#---#---x-----#---#---x----7----#---x-----#---#---*----*---|
E:|-0---7---5-----0---7---5---------7---5-----0---7---5----7----|
:
# bridge # (You know that I...)
G:|---------------------------------------------------|
D:|---------------#-------#----------------#-------#--|
A:|-----------#--2----#--2-------------#--2----#--2---|
E:|-0--------2-------2-------0--------2-------2-------|
:
# chorus3 #    +=play 9x
G:|------------------------------------------------------------------|
D:|--#-------------#-------------#-------------#---------------------|
A:|-7----#---x----7----#---x----7----#---x----7----#---+-----+-------|
E:|-----7---5---------7---5---------7---5---------7---5-----7-----0--|
            
Hard to play? Try these video lessons and learn fast. | Correct




comments powered by Disqus
↑ Back to top | Tablatures and chords are parodies/interpretations of the original songs. You may use it for private study, scholarship, research or language learning purposes only