>
 >
Surf 2

Surf 2 Guitar Tabs

Fenix Tx - Surf 2 chords, tabs, tablatures, lyrics

Guitar lessons | Add/correct | Request | Top 50 tabs Artists:  A B C D E F G H I J K L M N O P Q R S T U V W X Y Z 0-9

Surf 2 Guitar Tabs – Fenix Tx

CD, Sheet music, Poster

Do you like Surf 2? Share with your friends now
TabsTabs v2Tabs v3
fenix tx
surf song
intro
e|-------------------------------------------------------------------------
B|-------------------------------------------------------------------------
G|---------2-2-2-2-2---------2-2-2-2-2---------2-2-2-2-2---------4-4-4-4-4-
D|-2-2-2-2-2-2-2-2-2-2-2-2-2-2-2-2-2-2-2-2-2-2-2-2-2-2-2-4-4-4-4-4-4-4-4-4-
A|-2-2-2-2-0-0-0-0-0-2-2-2-2-0-0-0-0-0-2-2-2-2-0-0-0-0-0-4-4-4-4-2-2-2-2-2-
E|-0-0-0-0-----------0-0-0-0-----------0-0-0-0-----------2-2-2-2-----------

verse
e|-------------------------------------------------------------------------
B|-------------------------------------------------------------------------
G|---------2-2-2-2-2---------2-2-2-2-2---------2-2-2-2-2---------4-4-4-4-4-
D|-2-2-2-2-2-2-2-2-2-2-2-2-2-2-2-2-2-2-2-2-2-2-2-2-2-2-2-4-4-4-4-4-4-4-4-4-
A|-2-2-2-2-0-0-0-0-0-2-2-2-2-0-0-0-0-0-2-2-2-2-0-0-0-0-0-4-4-4-4-2-2-2-2-2-
E|-0-0-0-0-----------0-0-0-0-----------0-0-0-0-----------2-2-2-2-----------
pm|------------------------------------------------------------------------

before chorus
e|---------------
B|---------------
G|-4/6\4/6\4/6/9-
D|-4/6\4/6\4/6/9-
A|-2/4\2/4\2/4/7-
E|---------------

chorus
e|-----------------------------------------
B|-----------------------------------------
G|-9-9-9-9-9-------------------------------
D|-9-9-9-9-9-9-9-9-9-9-7-7-7-7-7-7-7-7-7-7-
A|-7-7-7-7-7-9-9-9-9-9-7-7-7-7-7-7-7-7-7-7-
E|-----------7-7-7-7-7-5-5-5-5-5-5-5-5-5-5-

end of chorus
e|---------------------------------------------------------
B|---------------------------------------------------------
G|-9-9-9-9-9-----------------------------------------------
D|-9-9-9-9-9-9-9-9-9-9-7-X-X-X-X-X-X-X-X-9-X-X-X-X-X-X-X-X-
A|-7-7-7-7-7-9-9-9-9-9-7-X-X-X-X-X-X-X-X-9-X-X-X-X-X-X-X-X-
E|-----------7-7-7-7-7-5-X-X-X-X-X-X-X-X-7-X-X-X-X-X-X-X-X-





Comments


Popular Fenix Tx tabs & chords
Ben Bass Tabs
All My Fault 1 Drum Tabs
All My Fault (Solo) Tabs
All My Fault 1 Tabs
Katie W. 1 Tabs
Katie W. 2 Tabs
Manufactured Inspirato Tabs
Something Bad Is Gonna Happen 1 Tabs
Surf Song 1 Tabs
Telefonication Tabs


Song lyrics



↑ Back to top | Tablatures and chords are parodies/interpretations of the original songs. You may use it for private study, scholarship, research or language learning purposes only
© 2014 AZChords.com Contact us | Privacy policy | DMCA | Add/correct tabs | Request tabs | Top 50 tabs