» » »

Fenix Tx, Surf Tabs (ver.1)

Artists:  A B C D E F G H I J K L M N O P Q R S T U V W X Y Z # 

Surf Tabs (ver.1)

Fenix Tx Tabs
 Rating:
4/5 (4 votes)
Surf lessons Tabs too difficult? Try these video lessons and learn fast
                E|---------------------------------------------------------------- 
B|---------------------------------------------------------------- 
G|--------2-2-222-2-2-222-2-2-222-2-2-222-2-2-222---------4-4-444- 
D|2-2-222-2-2-222-2-2-222-2-2-222-2-2-222-2-2-222-4-4-444-4-4-444- 
A|2-2-222-0-0-000-2-2-222-0-0-000-2-2-222-0-0-000-4-4-444-2-2-222- 
E|0-0-000---------0-0-000---------0-0-000---------2-2-222--------- 


E|---------------------------------------------------------------- 
B|---------------------------------------------------------------- 
G|--------2-2-222-2-2-222-2-2-222-2-2-222-2-2-222---------4-4-444- 
D|2-2-222-2-2-222-2-2-222-2-2-222-2-2-222-2-2-222-4-4-444-4-4-444- 
A|2-2-222-0-0-000-2-2-222-0-0-000-2-2-222-0-0-000-4-4-444-2-2-222- 
E|0-0-000---------0-0-000---------0-0-000---------2-2-222--------- 
   pm-------------------------------------------- 


chorus 
E|-------------------------------- 
B|-------------------------------- 
G|9-9-999------------------------- 
D|9-9-999-9-9-999-7-7-777-7-7-7-7- 
A|7-7-777-9-9-999-7-7-777-7-7-7-7- 
E|--------7-7-777-5-5-555-5-5-5-5- 

chorus solo 
E|13-13-15-13-13-131313-17-17- 
B|---------------------------- 
G|---------------------------- 
D|---------------------------- 
A|---------------------------- 
E|---------------------------- 

chorus ending 
E|---------------------------------------------------- 
B|---------------------------------------------------- 
G|9-9-999--------------------------------------------- 
D|9-9-999-9-9-999-7-xxxxxxxxxxxxxxx7xxxxxxxxxxxxxxxxx- 
A|7-7-777-9-9-999-7-xxxxxxxxxxxxxxx7xxxxxxxxxxxxxxxxx- 
E|--------7-7-777-5-xxxxxxxxxxxxxxx5xxxxxxxxxxxxxxxxx- 


E|--- 
B|--- 
G|--- 
D|2*- 
A|2*- 
E|0*- 
you know that i dont mind hangin out and wastin time 

E|---------------- 
B|---------------- 
G|--------4-4-444- 
D|4-4-444-4-4-444- 
A|4-4-444-2-2-222- 
E|2-2-222--------- 
yeahahahah yeahahaha 

E|--- 
B|--- 
G|--- 
D|2*- 
A|2*- 
E|0*- 
starin at the sea all day waitin for that perfect wave 


E|---------------- 
B|---------------- 
G|--------4-4-444- 
D|4-4-444-4-4-444- 
A|4-4-444-2-2-222- 
E|2-2-222--------- 
yeahahahah yeahahaha 


outro 
E|8*--6*----5*--- 
B|--------------- 
G|--------------- 
D|--------------- 
A|--------------- 
E|---------------
            
Submit corrections

comments powered by Disqus
↑ Back to top | Fenix Tx Tabs for Surf. Lyrics for acoustic guitar and electric guitar. Tablatures and chords are parodies/interpretations of the original songs. You may use it for private study, scholarship, research or language learning purposes only