» » »

Fenix Tx, Skinhead Jessie Tabs (ver.1)

Artists:  A B C D E F G H I J K L M N O P Q R S T U V W X Y Z # 

Skinhead Jessie Tabs (ver.1)

Fenix Tx Tabs
Rating:
0/5 (0 votes)
Skinhead Jessie lessons Tabs too difficult? Try these video lessons and learn fast
                fenix tx
skinhead jessie
?? album
    (Clean)
e|------7-----7-----5-----7------------------------------|
B|------7-----7-----5-----7------------------------------|
G|------9-----8-----6-----8------------------------------|
D|------9-----9-----7-----9------------------------------|
A|-------------------------------------------------------|
E|-------------------------------------------------------|

Chorus (Distorted):
        E        B        A        B
e|--------------------------------------------------------|
B|--------------------------------------------------------|
G|------9-------------------------------------------------|
D|------9--------9--------7--------9----------------------|
A|------7--------9--------7--------9----------------------|
E|---------------7--------5--------7----------------------|
......large.....bald.....grits....Vic's (I think)

Bridge (Horns) is same as intro and verse

After Bridge pickslide strings A and D I think then play chorus 2x a little faster then
its played in the chorus, and then play chorus 4x and end with an E

Song order:
Intro 4x
Verse 4x
Chorus 2x
Intro 2x
Verse 4x
Chorus 2x
Bridge 4x
Pickslide
Chorus 2x (faster)
Chorus 4x
End on an E
            

comments powered by Disqus
↑ Back to top | Fenix Tx Tabs for Skinhead Jessie. Lyrics for acoustic guitar and electric guitar. Tablatures and chords are parodies/interpretations of the original songs. You may use it for private study, scholarship, research or language learning purposes only