» » »

Rooster Song Tabs (ver.1)

Artists:  A B C D E F G H I J K L M N O P Q R S T U V W X Y Z # 

Rooster Song Tabs (ver.1)

Fenix Tx
Rating:
0/5 (0 votes)

Hard to play? Try these video lessons and learn fast.
                fenix tx
the rooster song
X= Palm mute

Intro
    e|------------------|
    B|------------------|
    G|------------------|
    D|------------------| (x3)
    A|--(5)---7-5p4-5---|
    E|------------------|

Verse
    e|-------------|
    B|-------------|
    G|---7---------|
    D|---7--5--7---|
    A|---5--5--7---|
    E|------3--5---|

Chorus:
    e|----------------------|
    B|----------------------|
    G|--(x)--(x)---(x)-(x)--|
    D|---5----7--6--5---7---|
    A|---5----7--6--5---7---|
    E|---3----5--4--3---5---|
            
Hard to play? Try these video lessons and learn fast. | Correct




comments powered by Disqus
↑ Back to top | Tablatures and chords are parodies/interpretations of the original songs. You may use it for private study, scholarship, research or language learning purposes only