» » »

Fenix Tx, Phoebe Cates Tabs (ver.3)

Artists:  A B C D E F G H I J K L M N O P Q R S T U V W X Y Z # 

Phoebe Cates Tabs (ver.3)

Fenix Tx Tabs
 Rating:
4/5 (4 votes)
Phoebe Cates lessons Tabs too difficult? Try these video lessons and learn fast
                E---------------------------------------------------------------------|
B---------------------------------------------------------------------|
G-----------------4/55555555555/4-----------------------777777--------|
D----55555555555--4/55555555555/4--22222222222--777777--777777--------|
A----55555555555--2/33333333333/2--22222222222--777777--555555--------|
E----33333333333-------------------00000000000--555555----------------|

E---------------------------------------------------------------------|
B---------------------------------------------------------------------|
G-----------------4/55555555555/4-----------------------777777--------|
D----55555555555--4/55555555555/4--22222222222--777777--777777--------|
A----55555555555--2/33333333333/2--22222222222--777777--555555--------|
E----33333333333-------------------00000000000--555555----------------|

VERSE:

E-----------------------------------------------------|
B-----------------------------------------------------|
G-------4/5--5/4--------------77777-------------------|
D----5--4/5--5/4--2----77777--77777-------------------|
A----5--2/3--3/2--2----77777--55555-------------------|
E----3------------0----55555--------------------------|

E-----------------------------------------------------|
B-----------------------------------------------------|
G-------4/5--5/4--------------77777-------------------|
D----5--4/5--5/4--2----77777--77777-------------------|
A----5--2/3--3/2--2----77777--55555-------------------|
E----3------------0----55555--------------------------|

PRE-CHORUS:

E-------------------------------------------------------------------------------------|
B-------------------------------------------------------------------------------------|
G--555555--777777--999999--7777--555555555/7/5555555--77777--99999--77777--5555--7777-|
D--555555--777777--999999--7777--555555555/7/5555555--55555--99999--77777--5555--7777-|
A--333333--555555--777777--5555--333333333/5/3333333--55555--77777--55555--3333--5555-|
E-------------------------------------------------------------------------------------|

CHORUS:

E---------------------------------------------------------------------|
B---------------------------------------------------------------------|
G-----------------4/55555555555/4-----------------------777777--------|
D----55555555555--4/55555555555/4--22222222222--777777--777777--------|
A----55555555555--2/33333333333/2--22222222222--777777--555555--------|
E----33333333333-------------------00000000000--555555----------------|

E---------------------------------------------------------------------|
B---------------------------------------------------------------------|
G-----------------4/55555555555/4-----------------------777777--------|
D----55555555555--4/55555555555/4--22222222222--777777--777777--------|
A----55555555555--2/33333333333/2--22222222222--777777--555555--------|
E----33333333333-------------------00000000000--555555----------------|

VERSE:

E-----------------------------------------------------|
B-----------------------------------------------------|
G-------4/5--5/4--------------77777-------------------|
D----5--4/5--5/4--2----77777--77777-------------------|
A----5--2/3--3/2--2----77777--55555-------------------|
E----3------------0----55555--------------------------|

E-----------------------------------------------------|
B-----------------------------------------------------|
G-------4/5--5/4--------------77777-------------------|
D----5--4/5--5/4--2----77777--77777-------------------|
A----5--2/3--3/2--2----77777--55555-------------------|
E----3------------0----55555--------------------------|

PRE-CHORUS:

E-------------------------------------------------------------------------------------|
B-------------------------------------------------------------------------------------|
G--555555--777777--999999--7777--555555555/7/5555555--77777--99999--77777--5555--7777-|
D--555555--777777--999999--7777--555555555/7/5555555--55555--99999--77777--5555--7777-|
A--333333--555555--777777--5555--333333333/5/3333333--55555--77777--55555--3333--5555-|
E-------------------------------------------------------------------------------------|

BREAKDOWN:

E----------------------|
B----------------------|
G----------------------|
D----5-----X-----5-----|
A----5-----X-----5-----|
E----3-----X-----3-----|

BUILD-UP:

E---------------------------------------------|
B---------------------------------------------|
G----------12--------12--------14-----11------|
D----------12--------12--------14-----11------|
A----10-10-10--10-10-10--12-12-12--9-9-9------|
E---------------------------------------------|

E---------------------------------------------|
B---------------------------------------------|
G----------12--------12--------14-----11------|
D----------12--------12--------14-----11------|
A----10-10-10--10-10-10--12-12-12--9-9-9------|
E---------------------------------------------|

E---------------------------------------------|
B---------------------------------------------|
G----------12--------12--------14-----11------|
D----------12--------12--------14-----11------|
A----10-10-10--10-10-10--12-12-12--9-9-9------|
E---------------------------------------------|

E---------------------------------------------|
B---------------------------------------------|
G----------12--------12--------14-----11------|
D----------12--------12--------14-----11------|
A----10-10-10--10-10-10--12-12-12--9-9-9------|
E---------------------------------------------|

E---------------------------------------------|
B---------------------------------------------|
G-----------444-------------------------------|
D------555--444--2222222----------------------|
A------555--222--2222222----------------------|
E------333-------0000000----------------------|

E---------------------------------------------|
B---------------------------------------------|
G-----------444-------------------------------|
D------555--444--2222222----------------------|
A------555--222--2222222----------------------|
E------333-------0000000----------------------|

E---------------------------------------------|
B---------------------------------------------|
G-----------444-------------------------------|
D------555--444--2222222----------------------|
A------555--222--2222222----------------------|
E------333-------0000000----------------------|

E---------------------------------------------|
B---------------------------------------------|
G-----------444-------------------------------|
D------555--444--2222222----------------------|
A------555--222--2222222----------------------|
E------333-------0000000----------------------|

PRE-CHORUS:

E-------------------------------------------------------------------------------------|
B-------------------------------------------------------------------------------------|
G--555555--777777--999999--7777--555555555/7/5555555--77777--99999--77777--5555--7777-|
D--555555--777777--999999--7777--555555555/7/5555555--55555--99999--77777--5555--7777-|
A--333333--555555--777777--5555--333333333/5/3333333--55555--77777--55555--3333--5555-|
E-------------------------------------------------------------------------------------|

CHORUS:

E---------------------------------------------------------------------|
B---------------------------------------------------------------------|
G-----------------4/55555555555/4-----------------------777777--------|
D----55555555555--4/55555555555/4--22222222222--777777--777777--------|
A----55555555555--2/33333333333/2--22222222222--777777--555555--------|
E----33333333333-------------------00000000000--555555----------------|

E---------------------------------------------------------------------|
B---------------------------------------------------------------------|
G-----------------4/55555555555/4-----------------------777777--------|
D----55555555555--4/55555555555/4--22222222222--777777--777777--------|
A----55555555555--2/33333333333/2--22222222222--777777--555555--------|
E----33333333333-------------------00000000000--555555----------------|

E---------------------------------------------------------------------|
B---------------------------------------------------------------------|
G-----------------4/55555555555/4-----------------------777777--------|
D----55555555555--4/55555555555/4--22222222222--777777--777777--------|
A----55555555555--2/33333333333/2--22222222222--777777--555555--------|
E----33333333333-------------------00000000000--555555----------------|

E---------------------------------------------------------------------|
B---------------------------------------------------------------------|
G-----------------4/55555555555/4-----------------------777777--------|
D----55555555555--4/55555555555/4--22222222222--777777--777777--------|
A----55555555555--2/33333333333/2--22222222222--777777--555555--------|
E----33333333333-------------------00000000000--555555----------------|

END:

E------------|
B------------|
G------------|
D----5-------|
A----5-------|
E----3-------|
            
Submit corrections

comments powered by Disqus
↑ Back to top | Fenix Tx Tabs for Phoebe Cates. Lyrics for acoustic guitar and electric guitar. Tablatures and chords are parodies/interpretations of the original songs. You may use it for private study, scholarship, research or language learning purposes only