>
 >
Phoebe Cates 1

Phoebe Cates 1 Guitar Tabs

Fenix Tx - Phoebe Cates 1 chords, tabs, tablatures, lyrics

Guitar lessons | Add/correct | Request | Top 50 tabs Artists:  A B C D E F G H I J K L M N O P Q R S T U V W X Y Z 0-9

Phoebe Cates 1 Guitar Tabs – Fenix Tx

CD, Sheet music, Poster

Do you like Phoebe Cates 1? Share with your friends now
Bass TabsChordsTabsTabs v2Tabs v3Ukulele
Please note - first tab.

Fenix TX
Phoebe Cates
Not on their album, but I heard it on American Pie 2 and thought it was really good, so I decided to try and tab it. Enjoy! 

Lead intro
E-3-3-3-35-3-3-3-35-3-3-3-35-3-3-2-2--|
B--3-3-3----3-3-3----3-3-3----3-3-3-3-|x2

Rhythm intro    
E-------------------------|
B-------------------------|
G-------5--------------7--|
D-5-----5-----2-----7--7--|x2
A-5-----3-----2-----7--5--|
E-3-----3-----0-----5--5--|

Verse
E-----------------|
B-----------------|
G-----5---------7-|x2
D-5---5---2---7-7-|
A-5---3---2---7-5-|
E-3---3---0---5-5-|
Pmx   x   x   x x

Chorus
E---------------|   |-----------------|
B---------------|   |-----------------|
G-5---7---9-7-5-|   |-----5---------7-|   With intro lead
D-5---7---9-7-5-|x2 |-5---5---2---7-7-|x2 part over the
A-3---5---7-5-3-|   |-5---3---2---7-5-|   top.
E-3---5---7-5-3-|   |-3---3---0---5-5-|

Then Verse

Then Chorus

Then Interlude
Bass solo
A-------------2222-----------------|x2 
E-333333333333----0000000000000000-|   2nd time with

D-5555-|
A-5555-| on rhythm
E-3333-|

Then Lead riff
E-3-3-3-3-5-5-2-2--|
B--3-3-3-3-3-3-3-3-|x4

Then Rhythm
E--------------------|
B--------------------|
G--------------------|x4
D-5555-9999-22222222-|
A-5555-9999-22222222-|
E-3333-7777-00000000-|

Then chorus with 2nd part (“wasting time, going blind”) repeated 4 times. End on G5





Comments


Popular Fenix Tx tabs & chords
City Of The Dead Bass Tabs
G B O H Bass Tabs
Flight 6 Tabs
G.B.O.H 1 Tabs
Jolly Green Dumb Ass Tabs
Joly Green Dumb Ass Tabs
Katie W. Tabs
No Lie 1 Tabs
Speechless 1 Tabs
Phoebe Cates Ukulele


Song lyrics



↑ Back to top | Tablatures and chords are parodies/interpretations of the original songs. You may use it for private study, scholarship, research or language learning purposes only
© 2014 AZChords.com Contact us | Privacy policy | DMCA | Add/correct tabs | Request tabs | Top 50 tabs