>
 >
Phoebe Cates

Phoebe Cates Guitar Tabs

Fenix Tx - Phoebe Cates chords, tabs, tablatures, lyrics

Guitar lessons | Add/correct | Request | Top 50 tabs Artists:  A B C D E F G H I J K L M N O P Q R S T U V W X Y Z 0-9

Phoebe Cates Guitar Tabs – Fenix Tx

CD, Sheet music, Poster

Do you like Phoebe Cates? Share with your friends now
Bass TabsChordsTabsTabs v2Tabs v3Ukulele
-----------------------------------------------------------------------------
                             Phoebe Cates  Fenix TX
-----------------------------------------------------------------------------

Tuning: drop D

Pretty simple song to play just get the rhythm right and itll start coming to you 
to make it the easiest way possible, Enjoy!

Intro:

e|---3--3--3------5------8--8--8-----5----3--3--3----5----8--8------2--2----|
B|-----3-3--3------5------8--8--8-----5----3--3--3----5----8--8------3--3--|
G|--------------------------------------------------------------------------|
D|-------------------------------------------------------------------------|
A|--------------------------------------------------------------------------|
E|--------------------------------------------------------------------------|

e|---3--3--3------5------8--8--8-----5----3--3--3----5----8--8------5-------|
B|-----3-3--3------5------8--8--8-----5----3--3--3----5----8--8------------|
G|--------------------------------------------------------------------------|
D|--------------------------------------------------------------------------|
A|--------------------------------------------------------------------------|
E|--------------------------------------------------------------------------|


Verse:

e|---x----x-x------x----x----x----------------------------------------------|
B|---x----x-x------x----x----x----------------------------------------------|
G|---x----5-5/4----x----x----7----------------------------------------------|
D|---5----5-5/4----2----7----7----------------------------------------------|
A|---5----3-x------2----7----5----------------------------------------------|
E|---5----x-x------2----7----x----------------------------------------------|


Chorus:

e|----x------x-----x---x---xx-x----x----x-----x----x----x----x-------------|
B|----x------x-----x---x---xx-x----x----x-----x----x----x----x-------------|
G|----5------7-----9---7---5-5/7----5----7-----9----7----5----7-------------|
D|----5------7-----9---7---5-5/7----5----7-----9----7----5----7-------------|
A|----3------5-----7---5---3-3/5----3----5-----7----5----3----5-------------|
E|----x------x-----x---x---x-x-x----x----x-----x----x----x----x-------------|


Verse

Chorus

Interlude:

e|---x-----x--x---------3-x-3-x-3-x-3-x-5-x-5-x 2-x-2-x-------x--x--x-x----|
B|---x-----x--x---------x-3-x-3-x-3-x-3-x-3-x-3-x-3-x-3-------x--x--x--x----|
G|---x-----4--x-----------------------------------------------x--4--x--x----|
D|---5-----4--2-----------------------------------------------5--4--2--1----|
A|---5-----2--2-----------------------------------------------5--2--2--1----|
E|---5-----x--2-----------------------------------------------5--x--2--1----|


| /  slide up
| \  slide down
| h  hammer-on
| p  pull-off
| ~  vibrato
| +  harmonic
| x  Mute note
=============================================================================





Comments


Popular Fenix Tx tabs & chords
G B O H 1 Bass Tabs
Jaw Bass Tabs
Rooster Song Bass Tabs
Surf Song 1 Bass Tabs
Surfsong Bass Tabs
A Song For Everyone 1 Tabs
Jolly Green Dumbass 1 Tabs
Jolly Green Dumbass 2 Tabs
Speechless 1 Tabs
Threesome 1 Tabs


Song lyrics



↑ Back to top | Tablatures and chords are parodies/interpretations of the original songs. You may use it for private study, scholarship, research or language learning purposes only
© 2014 AZChords.com Contact us | Privacy policy | DMCA | Add/correct tabs | Request tabs | Top 50 tabs