» » »

Fenix Tx, Phoebe Cates Tabs (ver.1)

Artists:  A B C D E F G H I J K L M N O P Q R S T U V W X Y Z # 

Phoebe Cates Tabs (ver.1)

Fenix Tx Tabs
 Rating:
3.3/5 (13 votes)
Phoebe Cates lessons Tabs too difficult? Try these video lessons and learn fast
                -----------------------------------------------------------------------------
                             Phoebe Cates – Fenix TX
-----------------------------------------------------------------------------

Tuning: drop D

Pretty simple song to play… just get the rhythm right and itll start coming to you… 
to make it the easiest way possible, Enjoy!

Intro:

e|---3--3--3------5------8--8--8-----5----3--3--3----5----8--8------2--2----|
B|-----3—-3--3------5------8--8--8-----5----3--3--3----5----8--8------3--3--|
G|--------------------------------------------------------------------------|
D|------—-------------------------------------------------------------------|
A|--------------------------------------------------------------------------|
E|--------------------------------------------------------------------------|

e|---3--3--3------5------8--8--8-----5----3--3--3----5----8--8------5-------|
B|-----3—-3--3------5------8--8--8-----5----3--3--3----5----8--8------------|
G|--------------------------------------------------------------------------|
D|--------------------------------------------------------------------------|
A|--------------------------------------------------------------------------|
E|--------------------------------------------------------------------------|


Verse:

e|---x----x-x------x----x----x----------------------------------------------|
B|---x----x-x------x----x----x----------------------------------------------|
G|---x----5-5/4----x----x----7----------------------------------------------|
D|---5----5-5/4----2----7----7----------------------------------------------|
A|---5----3-x------2----7----5----------------------------------------------|
E|---5----x-x------2----7----x----------------------------------------------|


Chorus:

e|----x------x-----x---x---x—x-x----x----x-----x----x----x----x-------------|
B|----x------x-----x---x---x—x-x----x----x-----x----x----x----x-------------|
G|----5------7-----9---7---5-5/7----5----7-----9----7----5----7-------------|
D|----5------7-----9---7---5-5/7----5----7-----9----7----5----7-------------|
A|----3------5-----7---5---3-3/5----3----5-----7----5----3----5-------------|
E|----x------x-----x---x---x-x-x----x----x-----x----x----x----x-------------|


Verse

Chorus

Interlude:

e|---x-----x--x---------3-x-3-x-3-x-3-x-5-x-5-x 2-x-2-x-------x--x--x—-x----|
B|---x-----x--x---------x-3-x-3-x-3-x-3-x-3-x-3-x-3-x-3-------x--x--x--x----|
G|---x-----4--x-----------------------------------------------x--4--x--x----|
D|---5-----4--2-----------------------------------------------5--4--2--1----|
A|---5-----2--2-----------------------------------------------5--2--2--1----|
E|---5-----x--2-----------------------------------------------5--x--2--1----|


| /  slide up
| \  slide down
| h  hammer-on
| p  pull-off
| ~  vibrato
| +  harmonic
| x  Mute note
=============================================================================
            
Submit corrections

comments powered by Disqus
↑ Back to top | Fenix Tx Tabs for Phoebe Cates. Lyrics for acoustic guitar and electric guitar. Tablatures and chords are parodies/interpretations of the original songs. You may use it for private study, scholarship, research or language learning purposes only