» » »

Ordinary World Tabs (ver.2)

Artists:  A B C D E F G H I J K L M N O P Q R S T U V W X Y Z # 

Ordinary World Tabs (ver.2)

Fenix Tx
Rating:
0/5 (0 votes)

Hard to play? Try these video lessons and learn fast.
                Intro:
 
G|-4-4-4-4-4-4-4-4-------------------------------------------------|
D|-4-4-4-4-4-4-4-4-4-4-4-4-4-4-4-4-7-7-7-7-7-7-7-7-2-2-2-2-2-2-2-2-|
A|-2-2-2-2-2-2-2-2-4-4-4-4-4-4-4-4-7-7-7-7-7-7-7-7-2-2-2-2-2-2-2-2-|
E|-----------------2-2-2-2-2-2-2-2-5-5-5-5-5-5-5-5-O-O-O-O-O-O-O-O-|

Intro 2: (figure out the timing)

e|--12--11--9--7--14--12--11--9--7-7-7-|
B|--------------------------------7-7--|

Verse: 4x

G|-6-6-6-6-6-6-6-6---------X-X-4-X-X-4-|
D|-6-6-6-6-6-6-6-6-2-2-2-2-X-X-4-X-X-4-|
A|-4-4-4-4-4-4-4-4-2-2-2-2-X-X-2-X-X-2-|
E|-----------------O-O-O-O-------------|

Pre-Chorus: (palm muted)

G|-6-6-6-6-6-6-6-6-----------------8-8-8-8-8-8-8-8-9-9-9-9-9-9-9-9-|
D|-6-6-6-6-6-6-6-6-6-6-6-6-6-6-6-6-8-8-8-8-8-8-8-8-9-9-9-9-9-9-9-9-|
A|-4-4-4-4-4-4-4-4-6-6-6-6-6-6-6-6-6-6-6-6-6-6-6-6-7-7-7-7-7-7-7-7-|
E|-----------------4-4-4-4-4-4-4-4---------------------------------|

Chorus: 2x

G|-4-4-4-4-4-4-4-4-------------------------------------------------|
D|-4-4-4-4-4-4-4-4-4-4-4-4-4-4-4-4-7-7-7-7-7-7-7-7-2-2-2-2-2-2-2-2-|
A|-2-2-2-2-2-2-2-2-4-4-4-4-4-4-4-4-7-7-7-7-7-7-7-7-2-2-2-2-2-2-2-2-|
E|-----------------2-2-2-2-2-2-2-2-5-5-5-5-5-5-5-5-O-O-O-O-O-O-O-O-|

Post Chorus:

G|-6-|
D|-6-|
A|-4-|
E|---|

Verse: 4x

G|-6-6-6-6-6-6-6-6---------X-X-4-X-X-4-|
D|-6-6-6-6-6-6-6-6-2-2-2-2-X-X-4-X-X-4-|
A|-4-4-4-4-4-4-4-4-2-2-2-2-X-X-2-X-X-2-|
E|-----------------O-O-O-O-------------|

Pre-Chorus: (palm muted)

G|-6-6-6-6-6-6-6-6-----------------8-8-8-8-8-8-8-8-9-9-9-9-9-9-9-9-|
D|-6-6-6-6-6-6-6-6-6-6-6-6-6-6-6-6-8-8-8-8-8-8-8-8-9-9-9-9-9-9-9-9-|
A|-4-4-4-4-4-4-4-4-6-6-6-6-6-6-6-6-6-6-6-6-6-6-6-6-7-7-7-7-7-7-7-7-|
E|-----------------4-4-4-4-4-4-4-4---------------------------------|

Chorus: 2x

G|-4-4-4-4-4-4-4-4-------------------------------------------------|
D|-4-4-4-4-4-4-4-4-4-4-4-4-4-4-4-4-7-7-7-7-7-7-7-7-2-2-2-2-2-2-2-2-|
A|-2-2-2-2-2-2-2-2-4-4-4-4-4-4-4-4-7-7-7-7-7-7-7-7-2-2-2-2-2-2-2-2-|
E|-----------------2-2-2-2-2-2-2-2-5-5-5-5-5-5-5-5-O-O-O-O-O-O-O-O-|

2x

G|--9-9-/-8-8-/-6-6-/-4-4-/-11-11-/-9--/-8-8-/-6-6-/-4--4-|
D|--------------------------------------------------------|
A|--7-7-/-6-6-/-4-4-/-2-2-/-9---9-/-7-7-/-6-6-/-4-4-/-2-2-|
E|--------------------------------------------------------|

Bass Line

During Bass Line: 4x

G|-6--4-|
D|-x--x-|
A|-4--2-|
E|------|

Pre-Chorus: (palm muted)

G|-6-6-6-6-6-6-6-6-----------------8-8-8-8-8-8-8-8-9-9-9-9-9-9-9-9-|
D|-6-6-6-6-6-6-6-6-6-6-6-6-6-6-6-6-8-8-8-8-8-8-8-8-9-9-9-9-9-9-9-9-|
A|-4-4-4-4-4-4-4-4-6-6-6-6-6-6-6-6-6-6-6-6-6-6-6-6-7-7-7-7-7-7-7-7-|
E|-----------------4-4-4-4-4-4-4-4---------------------------------|

Chorus: 2x

G|-4-4-4-4-4-4-4-4-------------------------------------------------|
D|-4-4-4-4-4-4-4-4-4-4-4-4-4-4-4-4-7-7-7-7-7-7-7-7-2-2-2-2-2-2-2-2-|
A|-2-2-2-2-2-2-2-2-4-4-4-4-4-4-4-4-7-7-7-7-7-7-7-7-2-2-2-2-2-2-2-2-|
E|-----------------2-2-2-2-2-2-2-2-5-5-5-5-5-5-5-5-O-O-O-O-O-O-O-O-|

Play til the song ends:

G|--9-9-/-8-8-/-6-6-/-4-4-/-11-11-/-9--/-8-8-/-6-6-/-4--4-|
D|--------------------------------------------------------|
A|--7-7-/-6-6-/-4-4-/-2-2-/-9---9-/-7-7-/-6-6-/-4-4-/-2-2-|
E|--------------------------------------------------------|




A Great Song, by a Great Band. Great Song to hear live, too bad Fenix Tx broke up.
Send everything to my email address....
            
Hard to play? Try these video lessons and learn fast. | Correct




comments powered by Disqus
↑ Back to top | Tablatures and chords are parodies/interpretations of the original songs. You may use it for private study, scholarship, research or language learning purposes only