» » »

Oblique Tabs (ver.1)

Artists:  A B C D E F G H I J K L M N O P Q R S T U V W X Y Z # 

Oblique Tabs (ver.1)

Fenix Tx
Rating:
0/5 (0 votes)

Hard to play? Try these video lessons and learn fast.
                Intro: part 1 (also the chorus) 
e|--------------------------------------------------------------------------| 
B|--------------------------------------------------------------------------| 
G|----7-----------------------6/7-------------------------------------------| 
D|----7--7--9--4--5--7--9--7--6/7-------------------------------------------| 
A|----5--7--9--4--5--7--9--7--4/5-------------------------------------------| 
E|-------5--7--2--3--5--7--5------------------------------------------------| 

Intro part 2 
e|--------------------------------------------------------------------------| 
B|--------------------------------------------------------------------------| 
G|---7--------------------6/7-----------------------------------------------| 
D|---7--7--9--4--5--7--9--6/7-----------------------------------------------| 
A|---5--7--9--4--5--7--9--4/5-----------------------------------------------| 
E|------5--7--2--3--5--7----------------------------------------------------| 

Fill 1 "makes me wonder how we could..."  
e|--------------------------------------------------------------------------| 
B|--------------------------------------------------------------------------| 
G|---7--6----4-----6---7----------------------------------------------------| 
D|---x--x----x-----x---x----------------------------------------------------| 
A|---5--4----2-----4---5----------------------------------------------------| 
E|--------------------------------------------------------------------------| 

bridge:  "never know just why she had to go away" 
e|--------------------------------------------------------------------------| 
B|--------------------------------------------------------------------------| 
G|--6--7-----------------------6---11----9--11--12--11--9--7--6--7--9-------| 
D|--x--x--7--9--4--5--7--9--7--x----x----x---x---x---x--x--x--x--x--x-------| 
A|--4--5--x--x--x--x--x--x--x--4----9----7---9--10---9--7--5--4--5--7-------| 
E|--------5--7--2--3--5--7--5-----------------------------------------------| 

e|--------------------------------------------------------------------------| 
B|--------------------------------------------------------------------------| 
G|--7-----------------------------------------------------------------------| 
D|--7--7-7-4-5-4--7--7-7-4-5-4---9--9-9-4-5-4---4--4-5-4-2-4-2-4-5-4-5-7-5-7| 
A|--5-------------7--------------9--------------4---------------------------| 
E|----------------5--------------7--------------2---------------------------| 

e|--------------------------------------------------------------------------| 
B|--------------------------------------------------------------------------| 
G|--------------------------------------------------------------------------| 
D|-9-7-9-11-9-11-12-11-9-11-9-7-9-7-5-7-5-4-5-4-2---0-----------------------| 
A|------------------------------------------------4-------------------------| 
E|--------------------------------------------------------------------------| 

Fill 2 second solo during chorus: 
e|--------------------------------------------------------------------------| 
B|--------------------------------------------------------------------------| 
G|--------------------------------------------------------------------------| 
D|--0-2-4-2-7-5-4-0-2-4-7-5-4-0-2-4-2-7-5-4-0-2-4-5-4--(back to main riff)--| 
A|--------------------------------------------------------------------------| 
E|--------------------------------------------------------------------------| 

Fill 3 closing octive solo: repeat until song fades out 
e|--------------------------------------------------------------------------| 
B|--------------------------------------------------------------------------| 
G|-7-6-4-3-4-6-7-9-11-9-11--12-11-9-7-6-7-9---------------------------------| 
D|-x-x-x-x-x-x-x-x-x--x-x---x--x--x-x-x-x-x---------------------------------| 
A|-5-4-2-1-2-4-5-7-9--7-9---10-9--7-5-4-5-7---------------------------------| 
E|--------------------------------------------------------------------------| 

order: 
Intro 1 x1 
Intro 2 x3 
Fill 1  x1 
Chorus (intro 1) x2 
Intro 2 x2 
Fill 1  x1 
Chorus  x2 
Bridge  x1 
Chorus  x1 
Fill 2  x1 
Chorus  x1 
Fill 3  x2
            
Hard to play? Try these video lessons and learn fast. | Correct




comments powered by Disqus
↑ Back to top | Tablatures and chords are parodies/interpretations of the original songs. You may use it for private study, scholarship, research or language learning purposes only