» » »

Fenix Tx, No Lie Tabs (ver.3)

Artists:  A B C D E F G H I J K L M N O P Q R S T U V W X Y Z # 

No Lie Tabs (ver.3)

Fenix Tx Tabs
Rating:
0/5 (0 votes)
No Lie lessons Tabs too difficult? Try these video lessons and learn fast
                fenix tx
no lie
Intro:
e----------------------------------------------------------------------------
b---777777776---------7777777776---------------------------------------------
G----------------6------------------------6----------------------------------
D---------------------------------------------------------------4------------
A---------------------------------------------------------------4------------
E---------------------------------------------------------------2------------

Now Bass comes in followed by a pick scr*pe:
e----------------------------------------------------------------------------
b--77777776------7777777-->----9----7777776----------------------------------
G--------------6------------------------------------------6------------------
D----------------------------------------------------------------------------
A----------------------------------------------------------------------------
E----------------------------------------------------------------------------

Verse:
e----------------------------------------------------------------------------
b-------------------4--------------------------------------------------------
G-------6-----------4--------------------------------------------------------
D-4-----6-----6-----2--------------------------------------------------------
A-4-----4-----6--------------------------------------------------------------
E-2-----------4--------------------------------------------------------------

Chorus:
e----------------------------------------------------------------------------
b----------------------------------------------------------------------------
G---4----------6-------------------------------------------------------------
D---4---4------6--------2----------------------------------------------------
A---2---4------4--------2----------------------------------------------------
E-------2---------------0----------------------------------------------------

Bridge:
e----------------------------------------------------------------------------
b----------------------------------------------------------------------------
G-----8------11----10-----8--------------------------------------------------
D----------------------------------------------------------------------------
A-----6------9-----8------6--------------------------------------------------
E----------------------------------------------------------------------------

e----------------------------------------------------------------------------
b----------------------------------------------------------------------------
G----8------11-----10----13--------------------------------------------------
D----------------------------------------------------------------------------
A----6------9------8-----11--------------------------------------------------
E----------------------------------------------------------------------------

e----------------------------------------------------------------------------
b----------------------------------------------------------------------------
G----8------11-----10----13------15------------------------------------------
D----------------------------------------------------------------------------
A----6------9------8-----11------13------------------------------------------
E----------------------------------------------------------------------------

e----------------------------------------------------------------------------
b----------------------------------------------------------------------------
G---8-----11----13------15-------16------------------------------------------
D----------------------------------------------------------------------------
A---6-----9-----11------13-------14------------------------------------------
E----------------------------------------------------------------------------

On the last chorus the second guitar plays this:
e----------------------------------------------------------------------------
b------7777777777-6----------------------------------------------------------
G-------------------------6--------------------------------------------------
D----------------------------------------------------------------------------
A----------------------------------------------------------------------------
E----------------------------------------------------------------------------
            

comments powered by Disqus
↑ Back to top | Fenix Tx Tabs for No Lie. Lyrics for acoustic guitar and electric guitar. Tablatures and chords are parodies/interpretations of the original songs. You may use it for private study, scholarship, research or language learning purposes only